  0
SECTION
  2
HEADER
  9
$ACADVER
  1
AC1015
  9
$ACADMAINTVER
 70
     6
  9
$DWGCODEPAGE
  3
ANSI_932
  9
$INSBASE
 10
0.0
 20
0.0
 30
0.0
  9
$EXTMIN
 10
283.771362
 20
439.232178
 30
0.0
  9
$EXTMAX
 10
1303.450562
 20
1372.490723
 30
0.0
  9
$LIMMIN
 10
0.0
 20
0.0
  9
$LIMMAX
 10
12.0
 20
9.0
  9
$ORTHOMODE
 70
     0
  9
$REGENMODE
 70
     1
  9
$FILLMODE
 70
     1
  9
$QTEXTMODE
 70
     0
  9
$MIRRTEXT
 70
     1
  9
$LTSCALE
 40
13.822869
  9
$ATTMODE
 70
     1
  9
$TEXTSIZE
 40
3.2
  9
$TRACEWID
 40
1.0
  9
$TEXTSTYLE
  7
Standard
  9
$CLAYER
  8
0
  9
$CELTYPE
  6
ByLayer
  9
$CECOLOR
 62
   256
  9
$CELTSCALE
 40
1.0
  9
$DISPSILH
 70
     0
  9
$DIMSCALE
 40
1.0
  9
$DIMASZ
 40
2.5
  9
$DIMEXO
 40
0.625
  9
$DIMDLI
 40
3.75
  9
$DIMRND
 40
0.0
  9
$DIMDLE
 40
0.0
  9
$DIMEXE
 40
1.25
  9
$DIMTP
 40
0.0
  9
$DIMTM
 40
0.0
  9
$DIMTXT
 40
2.5
  9
$DIMCEN
 40
0.09
  9
$DIMTSZ
 40
0.0
  9
$DIMTOL
 70
     0
  9
$DIMLIM
 70
     0
  9
$DIMTIH
 70
     0
  9
$DIMTOH
 70
     0
  9
$DIMSE1
 70
     0
  9
$DIMSE2
 70
     0
  9
$DIMTAD
 70
     0
  9
$DIMZIN
 70
     8
  9
$DIMBLK
  1

  9
$DIMASO
 70
     1
  9
$DIMSHO
 70
     0
  9
$DIMPOST
  1

  9
$DIMAPOST
  1

  9
$DIMALT
 70
     0
  9
$DIMALTD
 70
     3
  9
$DIMALTF
 40
0.03937
  9
$DIMLFAC
 40
1.0
  9
$DIMTOFL
 70
     1
  9
$DIMTVP
 40
0.0
  9
$DIMTIX
 70
     0
  9
$DIMSOXD
 70
     0
  9
$DIMSAH
 70
     0
  9
$DIMBLK1
  1

  9
$DIMBLK2
  1

  9
$DIMSTYLE
  2
ISO-25
  9
$DIMCLRD
 70
     0
  9
$DIMCLRE
 70
     0
  9
$DIMCLRT
 70
     0
  9
$DIMTFAC
 40
1.0
  9
$DIMGAP
 40
0.625
  9
$DIMJUST
 70
     0
  9
$DIMSD1
 70
     0
  9
$DIMSD2
 70
     0
  9
$DIMTOLJ
 70
     0
  9
$DIMTZIN
 70
     8
  9
$DIMALTZ
 70
     0
  9
$DIMALTTZ
 70
     0
  9
$DIMUPT
 70
     0
  9
$DIMDEC
 70
     2
  9
$DIMTDEC
 70
     2
  9
$DIMALTU
 70
     2
  9
$DIMALTTD
 70
     3
  9
$DIMTXSTY
  7
Standard
  9
$DIMAUNIT
 70
     0
  9
$DIMADEC
 70
     0
  9
$DIMALTRND
 40
0.0
  9
$DIMAZIN
 70
     0
  9
$DIMDSEP
 70
    44
  9
$DIMATFIT
 70
     3
  9
$DIMFRAC
 70
     0
  9
$DIMLDRBLK
  1

  9
$DIMLUNIT
 70
     2
  9
$DIMLWD
 70
    -2
  9
$DIMLWE
 70
    -2
  9
$DIMTMOVE
 70
     0
  9
$LUNITS
 70
     2
  9
$LUPREC
 70
     4
  9
$SKETCHINC
 40
1.0
  9
$FILLETRAD
 40
0.0
  9
$AUNITS
 70
     0
  9
$AUPREC
 70
     0
  9
$MENU
  1
.
  9
$ELEVATION
 40
0.0
  9
$PELEVATION
 40
0.0
  9
$THICKNESS
 40
0.0
  9
$LIMCHECK
 70
     0
  9
$CHAMFERA
 40
10.0
  9
$CHAMFERB
 40
10.0
  9
$CHAMFERC
 40
20.0
  9
$CHAMFERD
 40
0.0
  9
$SKPOLY
 70
     0
  9
$TDCREATE
 40
2455918.54403772
  9
$TDUCREATE
 40
2455918.16903772
  9
$TDUPDATE
 40
2455918.544037731
  9
$TDUUPDATE
 40
2455918.169037731
  9
$TDINDWG
 40
0.0000000116
  9
$TDUSRTIMER
 40
0.0000000116
  9
$USRTIMER
 70
     1
  9
$ANGBASE
 50
0.0
  9
$ANGDIR
 70
     0
  9
$PDMODE
 70
     0
  9
$PDSIZE
 40
0.0
  9
$PLINEWID
 40
0.0
  9
$SPLFRAME
 70
     0
  9
$SPLINETYPE
 70
     6
  9
$SPLINESEGS
 70
     8
  9
$HANDSEED
  5
3D2
  9
$SURFTAB1
 70
     6
  9
$SURFTAB2
 70
     6
  9
$SURFTYPE
 70
     6
  9
$SURFU
 70
     6
  9
$SURFV
 70
     6
  9
$UCSBASE
  2

  9
$UCSNAME
  2

  9
$UCSORG
 10
0.0
 20
0.0
 30
0.0
  9
$UCSXDIR
 10
1.0
 20
0.0
 30
0.0
  9
$UCSYDIR
 10
0.0
 20
1.0
 30
0.0
  9
$UCSORTHOREF
  2

  9
$UCSORTHOVIEW
 70
     0
  9
$UCSORGTOP
 10
0.0
 20
0.0
 30
0.0
  9
$UCSORGBOTTOM
 10
0.0
 20
0.0
 30
0.0
  9
$UCSORGLEFT
 10
0.0
 20
0.0
 30
0.0
  9
$UCSORGRIGHT
 10
0.0
 20
0.0
 30
0.0
  9
$UCSORGFRONT
 10
0.0
 20
0.0
 30
0.0
  9
$UCSORGBACK
 10
0.0
 20
0.0
 30
0.0
  9
$PUCSBASE
  2

  9
$PUCSNAME
  2

  9
$PUCSORG
 10
0.0
 20
0.0
 30
0.0
  9
$PUCSXDIR
 10
1.0
 20
0.0
 30
0.0
  9
$PUCSYDIR
 10
0.0
 20
1.0
 30
0.0
  9
$PUCSORTHOREF
  2

  9
$PUCSORTHOVIEW
 70
     0
  9
$PUCSORGTOP
 10
0.0
 20
0.0
 30
0.0
  9
$PUCSORGBOTTOM
 10
0.0
 20
0.0
 30
0.0
  9
$PUCSORGLEFT
 10
0.0
 20
0.0
 30
0.0
  9
$PUCSORGRIGHT
 10
0.0
 20
0.0
 30
0.0
  9
$PUCSORGFRONT
 10
0.0
 20
0.0
 30
0.0
  9
$PUCSORGBACK
 10
0.0
 20
0.0
 30
0.0
  9
$USERI1
 70
     0
  9
$USERI2
 70
     0
  9
$USERI3
 70
     0
  9
$USERI4
 70
     0
  9
$USERI5
 70
     0
  9
$USERR1
 40
0.0
  9
$USERR2
 40
0.0
  9
$USERR3
 40
0.0
  9
$USERR4
 40
0.0
  9
$USERR5
 40
0.0
  9
$WORLDVIEW
 70
     1
  9
$SHADEDGE
 70
     3
  9
$SHADEDIF
 70
    70
  9
$TILEMODE
 70
     1
  9
$MAXACTVP
 70
    64
  9
$PINSBASE
 10
0.0
 20
0.0
 30
0.0
  9
$PLIMCHECK
 70
     0
  9
$PEXTMIN
 10
1.000000E+20
 20
1.000000E+20
 30
0.0
  9
$PEXTMAX
 10
-1.000000E+20
 20
-1.000000E+20
 30
0.0
  9
$PLIMMIN
 10
0.0
 20
0.0
  9
$PLIMMAX
 10
12.0
 20
9.0
  9
$UNITMODE
 70
     0
  9
$VISRETAIN
 70
     1
  9
$PLINEGEN
 70
     0
  9
$PSLTSCALE
 70
     1
  9
$TREEDEPTH
 70
  3020
  9
$CMLSTYLE
  2
Standard
  9
$CMLJUST
 70
     0
  9
$CMLSCALE
 40
20.0
  9
$PROXYGRAPHICS
 70
     1
  9
$MEASUREMENT
 70
     1
  9
$CELWEIGHT
370
    -1
  9
$ENDCAPS
280
     0
  9
$JOINSTYLE
280
     0
  9
$LWDISPLAY
290
     0
  9
$INSUNITS
 70
     4
  9
$HYPERLINKBASE
  1

  9
$STYLESHEET
  1

  9
$XEDIT
290
     1
  9
$CEPSNTYPE
380
     0
  9
$PSTYLEMODE
290
     1
  9
$FINGERPRINTGUID
  2
{6B10B3E2-413C-4247-86DE-9F05D2B08254}
  9
$VERSIONGUID
  2
{FAEB1C32-E019-11D5-929B-00C0DF256EC4}
  9
$EXTNAMES
290
     1
  9
$PSVPSCALE
 40
0.0
  9
$OLESTARTUP
290
     0
  0
ENDSEC
  0
SECTION
  2
CLASSES
  0
CLASS
  1
ACDBDICTIONARYWDFLT
  2
AcDbDictionaryWithDefault
  3
ObjectDBX Classes
 90
        0
280
     0
281
     0
  0
CLASS
  1
VISUALSTYLE
  2
AcDbVisualStyle
  3
ObjectDBX Classes
 90
     4095
280
     0
281
     0
  0
CLASS
  1
DICTIONARYVAR
  2
AcDbDictionaryVar
  3
ObjectDBX Classes
 90
        0
280
     0
281
     0
  0
CLASS
  1
ACDBPLACEHOLDER
  2
AcDbPlaceHolder
  3
ObjectDBX Classes
 90
        0
280
     0
281
     0
  0
CLASS
  1
LAYOUT
  2
AcDbLayout
  3
ObjectDBX Classes
 90
        0
280
     0
281
     0
  0
ENDSEC
  0
SECTION
  2
TABLES
  0
TABLE
  2
VPORT
  5
8
330
0
100
AcDbSymbolTable
 70
     1
  0
VPORT
  5
29
330
8
100
AcDbSymbolTableRecord
100
AcDbViewportTableRecord
  2
*Active
 70
     0
 10
0.0
 20
0.0
 11
1.0
 21
1.0
 12
793.610962
 22
905.86145
 13
0.0
 23
0.0
 14
1.0
 24
1.0
 15
0.0
 25
0.0
 16
0.0
 26
0.0
 36
1.0
 17
0.0
 27
0.0
 37
0.0
 40
942.59113
 41
1.691288
 42
50.0
 43
0.0
 44
0.0
 50
0.0
 51
0.0
 71
     0
 72
   100
 73
     1
 74
     3
 75
     0
 76
     0
 77
     0
 78
     0
281
     0
 65
     1
110
0.0
120
0.0
130
0.0
111
1.0
121
0.0
131
0.0
112
0.0
122
1.0
132
0.0
 79
     0
146
0.0
  0
ENDTAB
  0
TABLE
  2
LTYPE
  5
5
330
0
100
AcDbSymbolTable
 70
     5
  0
LTYPE
  5
14
330
5
100
AcDbSymbolTableRecord
100
AcDbLinetypeTableRecord
  2
ByBlock
 70
     0
  3

 72
    65
 73
     0
 40
0.0
  0
LTYPE
  5
15
330
5
100
AcDbSymbolTableRecord
100
AcDbLinetypeTableRecord
  2
ByLayer
 70
     0
  3

 72
    65
 73
     0
 40
0.0
  0
LTYPE
  5
16
330
5
100
AcDbSymbolTableRecord
100
AcDbLinetypeTableRecord
  2
Continuous
 70
     0
  3
Solid line
 72
    65
 73
     0
 40
0.0
  0
LTYPE
  5
3B
330
5
100
AcDbSymbolTableRecord
100
AcDbLinetypeTableRecord
  2
DASHED
 70
     0
  3
DASHED
 72
    83
 73
     2
 40
0.75
 49
0.5
 74
     0
 49
-0.25
 74
     0
  0
LTYPE
  5
3C
330
5
100
AcDbSymbolTableRecord
100
AcDbLinetypeTableRecord
  2
HIDDEN
 70
     0
  3
HIDDEN
 72
    83
 73
     2
 40
0.375
 49
0.25
 74
     0
 49
-0.125
 74
     0
  0
LTYPE
  5
3D
330
5
100
AcDbSymbolTableRecord
100
AcDbLinetypeTableRecord
  2
CENTER
 70
     0
  3
CENTER
 72
    83
 73
     4
 40
2.0
 49
1.25
 74
     0
 49
-0.25
 74
     0
 49
0.25
 74
     0
 49
-0.25
 74
     0
  0
LTYPE
  5
3E
330
5
100
AcDbSymbolTableRecord
100
AcDbLinetypeTableRecord
  2
PHANTOM
 70
     0
  3
PHANTOM
 72
    83
 73
     6
 40
2.5
 49
1.25
 74
     0
 49
-0.25
 74
     0
 49
0.25
 74
     0
 49
-0.25
 74
     0
 49
0.25
 74
     0
 49
-0.25
 74
     0
  0
ENDTAB
  0
TABLE
  2
LAYER
  5
2
330
0
100
AcDbSymbolTable
 70
     2
  0
LAYER
  5
10
330
2
100
AcDbSymbolTableRecord
100
AcDbLayerTableRecord
  2
0
 70
     0
 62
     7
  6
Continuous
370
    -3
390
F
  0
LAYER
  5
3F
330
2
100
AcDbSymbolTableRecord
100
AcDbLayerTableRecord
  2
001
 70
     0
 62
     7
  6
Continuous
370
    -3
390
F
  0
ENDTAB
  0
TABLE
  2
STYLE
  5
3
330
0
100
AcDbSymbolTable
 70
     2
  0
STYLE
  5
11
330
3
100
AcDbSymbolTableRecord
100
AcDbTextStyleTableRecord
  2
Standard
 70
     0
 40
0.0
 41
1.0
 50
0.0
 71
     0
 42
0.2
  3
TXT
  4
BIGFONT
  0
STYLE
  5
40
330
3
100
AcDbSymbolTableRecord
100
AcDbTextStyleTableRecord
  2
TATEGAKI
 70
     4
 40
1.0
 41
1.0
 50
0.0
 71
     0
 42
0.2
  3
TXT
  4
BIGFONT
  0
ENDTAB
  0
TABLE
  2
VIEW
  5
6
330
0
100
AcDbSymbolTable
 70
     0
  0
ENDTAB
  0
TABLE
  2
UCS
  5
7
330
0
100
AcDbSymbolTable
 70
     0
  0
ENDTAB
  0
TABLE
  2
APPID
  5
9
330
0
100
AcDbSymbolTable
 70
     1
  0
APPID
  5
12
330
9
100
AcDbSymbolTableRecord
100
AcDbRegAppTableRecord
  2
ACAD
 70
     0
  0
ENDTAB
  0
TABLE
  2
DIMSTYLE
  5
A
330
0
100
AcDbSymbolTable
 70
     2
100
AcDbDimStyleTable
  0
DIMSTYLE
105
27
330
A
100
AcDbSymbolTableRecord
100
AcDbDimStyleTableRecord
  2
ISO-25
 70
     0
 41
2.5
 42
0.625
 43
3.75
 44
1.25
 73
     0
 74
     0
 77
     1
 78
     8
140
2.5
141
2.5
143
0.03937
147
0.625
171
     3
172
     1
271
     2
272
     2
274
     3
278
    44
283
     0
284
     8
340
11
  0
DIMSTYLE
105
41
330
A
100
AcDbSymbolTableRecord
100
AcDbDimStyleTableRecord
  2
Standard
 70
     0
 41
1.5
 42
0.0
 44
2.75
 73
     0
 74
     0
 77
     1
 78
     8
 79
     2
140
4.0
146
0.8
147
1.0
172
     1
179
     1
271
     1
340
11
  0
ENDTAB
  0
TABLE
  2
BLOCK_RECORD
  5
1
330
0
100
AcDbSymbolTable
 70
    13
  0
BLOCK_RECORD
  5
1F
330
1
100
AcDbSymbolTableRecord
100
AcDbBlockTableRecord
  2
*Model_Space
340
22
  0
BLOCK_RECORD
  5
1B
330
1
100
AcDbSymbolTableRecord
100
AcDbBlockTableRecord
  2
*Paper_Space
340
1E
  0
BLOCK_RECORD
  5
23
330
1
100
AcDbSymbolTableRecord
100
AcDbBlockTableRecord
  2
*Paper_Space0
340
26
  0
BLOCK_RECORD
  5
42
330
1
100
AcDbSymbolTableRecord
100
AcDbBlockTableRecord
  2
DIM-1
340
0
102
{BLKREFS
331
66
102
}
  0
BLOCK_RECORD
  5
45
330
1
100
AcDbSymbolTableRecord
100
AcDbBlockTableRecord
  2
DIM-2
340
0
102
{BLKREFS
331
67
102
}
  0
BLOCK_RECORD
  5
48
330
1
100
AcDbSymbolTableRecord
100
AcDbBlockTableRecord
  2
DIM-3
340
0
102
{BLKREFS
331
68
102
}
  0
BLOCK_RECORD
  5
4B
330
1
100
AcDbSymbolTableRecord
100
AcDbBlockTableRecord
  2
DIM-4
340
0
102
{BLKREFS
331
69
102
}
  0
BLOCK_RECORD
  5
4E
330
1
100
AcDbSymbolTableRecord
100
AcDbBlockTableRecord
  2
DIM-5
340
0
102
{BLKREFS
331
6A
102
}
  0
BLOCK_RECORD
  5
51
330
1
100
AcDbSymbolTableRecord
100
AcDbBlockTableRecord
  2
DIM-6
340
0
102
{BLKREFS
331
6B
102
}
  0
BLOCK_RECORD
  5
54
330
1
100
AcDbSymbolTableRecord
100
AcDbBlockTableRecord
  2
DIM-7
340
0
102
{BLKREFS
331
6C
102
}
  0
BLOCK_RECORD
  5
57
330
1
100
AcDbSymbolTableRecord
100
AcDbBlockTableRecord
  2
DIM-8
340
0
102
{BLKREFS
331
6D
102
}
  0
BLOCK_RECORD
  5
5A
330
1
100
AcDbSymbolTableRecord
100
AcDbBlockTableRecord
  2
DIM-9
340
0
102
{BLKREFS
331
6E
102
}
  0
BLOCK_RECORD
  5
5D
330
1
100
AcDbSymbolTableRecord
100
AcDbBlockTableRecord
  2
DIM-10
340
0
102
{BLKREFS
331
6F
102
}
  0
BLOCK_RECORD
  5
60
330
1
100
AcDbSymbolTableRecord
100
AcDbBlockTableRecord
  2
DIM-11
340
0
102
{BLKREFS
331
70
102
}
  0
BLOCK_RECORD
  5
63
330
1
100
AcDbSymbolTableRecord
100
AcDbBlockTableRecord
  2
DIM-12
340
0
102
{BLKREFS
331
71
102
}
  0
ENDTAB
  0
ENDSEC
  0
SECTION
  2
BLOCKS
  0
BLOCK
  5
20
330
1F
100
AcDbEntity
  8
0
100
AcDbBlockBegin
  2
*Model_Space
 70
     0
 10
0.0
 20
0.0
 30
0.0
  3
*Model_Space
  1

  0
ENDBLK
  5
21
330
1F
100
AcDbEntity
  8
0
100
AcDbBlockEnd
  0
BLOCK
  5
1C
330
1B
100
AcDbEntity
 67
     1
  8
0
100
AcDbBlockBegin
  2
*Paper_Space
 70
     0
 10
0.0
 20
0.0
 30
0.0
  3
*Paper_Space
  1

  0
ENDBLK
  5
1D
330
1B
100
AcDbEntity
 67
     1
  8
0
100
AcDbBlockEnd
  0
BLOCK
  5
24
330
23
100
AcDbEntity
  8
0
100
AcDbBlockBegin
  2
*Paper_Space0
 70
     0
 10
0.0
 20
0.0
 30
0.0
  3
*Paper_Space0
  1

  0
ENDBLK
  5
25
330
23
100
AcDbEntity
  8
0
100
AcDbBlockEnd
  0
BLOCK
  5
43
330
42
100
AcDbEntity
  8
0
100
AcDbBlockBegin
  2
DIM-1
 70
     0
 10
0.0
 20
0.0
 30
0.0
  3
DIM-1
  1

  0
ENDBLK
  5
44
330
42
100
AcDbEntity
  8
0
100
AcDbBlockEnd
  0
BLOCK
  5
46
330
45
100
AcDbEntity
  8
0
100
AcDbBlockBegin
  2
DIM-2
 70
     0
 10
0.0
 20
0.0
 30
0.0
  3
DIM-2
  1

  0
ENDBLK
  5
47
330
45
100
AcDbEntity
  8
0
100
AcDbBlockEnd
  0
BLOCK
  5
49
330
48
100
AcDbEntity
  8
0
100
AcDbBlockBegin
  2
DIM-3
 70
     0
 10
0.0
 20
0.0
 30
0.0
  3
DIM-3
  1

  0
ENDBLK
  5
4A
330
48
100
AcDbEntity
  8
0
100
AcDbBlockEnd
  0
BLOCK
  5
4C
330
4B
100
AcDbEntity
  8
0
100
AcDbBlockBegin
  2
DIM-4
 70
     0
 10
0.0
 20
0.0
 30
0.0
  3
DIM-4
  1

  0
ENDBLK
  5
4D
330
4B
100
AcDbEntity
  8
0
100
AcDbBlockEnd
  0
BLOCK
  5
4F
330
4E
100
AcDbEntity
  8
0
100
AcDbBlockBegin
  2
DIM-5
 70
     0
 10
0.0
 20
0.0
 30
0.0
  3
DIM-5
  1

  0
ENDBLK
  5
50
330
4E
100
AcDbEntity
  8
0
100
AcDbBlockEnd
  0
BLOCK
  5
52
330
51
100
AcDbEntity
  8
0
100
AcDbBlockBegin
  2
DIM-6
 70
     0
 10
0.0
 20
0.0
 30
0.0
  3
DIM-6
  1

  0
ENDBLK
  5
53
330
51
100
AcDbEntity
  8
0
100
AcDbBlockEnd
  0
BLOCK
  5
55
330
54
100
AcDbEntity
  8
0
100
AcDbBlockBegin
  2
DIM-7
 70
     0
 10
0.0
 20
0.0
 30
0.0
  3
DIM-7
  1

  0
ENDBLK
  5
56
330
54
100
AcDbEntity
  8
0
100
AcDbBlockEnd
  0
BLOCK
  5
58
330
57
100
AcDbEntity
  8
0
100
AcDbBlockBegin
  2
DIM-8
 70
     0
 10
0.0
 20
0.0
 30
0.0
  3
DIM-8
  1

  0
ENDBLK
  5
59
330
57
100
AcDbEntity
  8
0
100
AcDbBlockEnd
  0
BLOCK
  5
5B
330
5A
100
AcDbEntity
  8
0
100
AcDbBlockBegin
  2
DIM-9
 70
     0
 10
0.0
 20
0.0
 30
0.0
  3
DIM-9
  1

  0
ENDBLK
  5
5C
330
5A
100
AcDbEntity
  8
0
100
AcDbBlockEnd
  0
BLOCK
  5
5E
330
5D
100
AcDbEntity
  8
0
100
AcDbBlockBegin
  2
DIM-10
 70
     0
 10
0.0
 20
0.0
 30
0.0
  3
DIM-10
  1

  0
ENDBLK
  5
5F
330
5D
100
AcDbEntity
  8
0
100
AcDbBlockEnd
  0
BLOCK
  5
61
330
60
100
AcDbEntity
  8
0
100
AcDbBlockBegin
  2
DIM-11
 70
     0
 10
0.0
 20
0.0
 30
0.0
  3
DIM-11
  1

  0
ENDBLK
  5
62
330
60
100
AcDbEntity
  8
0
100
AcDbBlockEnd
  0
BLOCK
  5
64
330
63
100
AcDbEntity
  8
0
100
AcDbBlockBegin
  2
DIM-12
 70
     0
 10
0.0
 20
0.0
 30
0.0
  3
DIM-12
  1

  0
ENDBLK
  5
65
330
63
100
AcDbEntity
  8
0
100
AcDbBlockEnd
  0
ENDSEC
  0
SECTION
  2
ENTITIES
  0
INSERT
  5
66
330
1F
100
AcDbEntity
  8
001
  6
ByBlock
 62
     0
370
    -2
100
AcDbBlockReference
  2
DIM-1
 10
0.0
 20
0.0
 30
0.0
  0
INSERT
  5
67
330
1F
100
AcDbEntity
  8
001
  6
ByBlock
 62
     0
370
    -2
100
AcDbBlockReference
  2
DIM-2
 10
0.0
 20
0.0
 30
0.0
  0
INSERT
  5
68
330
1F
100
AcDbEntity
  8
001
  6
ByBlock
 62
     0
370
    -2
100
AcDbBlockReference
  2
DIM-3
 10
0.0
 20
0.0
 30
0.0
  0
INSERT
  5
69
330
1F
100
AcDbEntity
  8
001
  6
ByBlock
 62
     0
370
    -2
100
AcDbBlockReference
  2
DIM-4
 10
0.0
 20
0.0
 30
0.0
  0
INSERT
  5
6A
330
1F
100
AcDbEntity
  8
001
  6
ByBlock
 62
     0
370
    -2
100
AcDbBlockReference
  2
DIM-5
 10
0.0
 20
0.0
 30
0.0
  0
INSERT
  5
6B
330
1F
100
AcDbEntity
  8
001
  6
ByBlock
 62
     0
370
    -2
100
AcDbBlockReference
  2
DIM-6
 10
0.0
 20
0.0
 30
0.0
  0
INSERT
  5
6C
330
1F
100
AcDbEntity
  8
001
  6
ByBlock
 62
     0
370
    -2
100
AcDbBlockReference
  2
DIM-7
 10
0.0
 20
0.0
 30
0.0
  0
INSERT
  5
6D
330
1F
100
AcDbEntity
  8
001
  6
ByBlock
 62
     0
370
    -2
100
AcDbBlockReference
  2
DIM-8
 10
0.0
 20
0.0
 30
0.0
  0
INSERT
  5
6E
330
1F
100
AcDbEntity
  8
001
  6
ByBlock
 62
     0
370
    -2
100
AcDbBlockReference
  2
DIM-9
 10
0.0
 20
0.0
 30
0.0
  0
INSERT
  5
6F
330
1F
100
AcDbEntity
  8
001
  6
ByBlock
 62
     0
370
    -2
100
AcDbBlockReference
  2
DIM-10
 10
0.0
 20
0.0
 30
0.0
  0
INSERT
  5
70
330
1F
100
AcDbEntity
  8
001
  6
ByBlock
 62
     0
370
    -2
100
AcDbBlockReference
  2
DIM-11
 10
0.0
 20
0.0
 30
0.0
  0
INSERT
  5
71
330
1F
100
AcDbEntity
  8
001
  6
ByBlock
 62
     0
370
    -2
100
AcDbBlockReference
  2
DIM-12
 10
0.0
 20
0.0
 30
0.0
  0
LINE
  5
72
330
1F
100
AcDbEntity
  8
001
  6
CENTER
 62
     5
370
     9
100
AcDbLine
 10
866.59484
 20
1205.490685
 30
0.0
 11
921.252221
 21
1205.490685
 31
0.0
  0
LINE
  5
73
330
1F
100
AcDbEntity
  8
001
 62
     5
370
    30
100
AcDbLine
 10
1303.450508
 20
498.706152
 30
0.0
 11
1303.450508
 21
463.706152
 31
0.0
  0
LINE
  5
74
330
1F
100
AcDbEntity
  8
001
 62
     5
370
    30
100
AcDbLine
 10
803.450508
 20
463.706152
 30
0.0
 11
1303.450508
 21
463.706152
 31
0.0
  0
CIRCLE
  5
75
330
1F
100
AcDbEntity
  8
001
 62
     5
370
    30
100
AcDbCircle
 10
1203.450508
 20
1067.490685
 30
0.0
 40
5.5
  0
CIRCLE
  5
76
330
1F
100
AcDbEntity
  8
001
  6
HIDDEN
 62
     5
370
     9
100
AcDbCircle
 10
1203.450508
 20
1337.490685
 30
0.0
 40
5.5
  0
LINE
  5
77
330
1F
100
AcDbEntity
  8
001
  6
CENTER
 62
     5
370
     9
100
AcDbLine
 10
1203.450508
 20
498.706152
 30
0.0
 11
1203.450508
 21
440.712239
 31
0.0
  0
LINE
  5
78
330
1F
100
AcDbEntity
  8
001
  6
CENTER
 62
     5
370
     9
100
AcDbLine
 10
1203.450508
 20
1051.490685
 30
0.0
 11
1203.450508
 21
1087.490685
 31
0.0
  0
LINE
  5
79
330
1F
100
AcDbEntity
  8
001
 62
     5
370
    30
100
AcDbLine
 10
803.450508
 20
1052.490685
 30
0.0
 11
1303.450508
 21
1052.490685
 31
0.0
  0
LINE
  5
7A
330
1F
100
AcDbEntity
  8
001
  6
CENTER
 62
     5
370
     9
100
AcDbLine
 10
1171.927195
 20
1067.490685
 30
0.0
 11
1222.450508
 21
1067.490685
 31
0.0
  0
LINE
  5
7B
330
1F
100
AcDbEntity
  8
001
 62
     5
370
    30
100
AcDbLine
 10
1284.450508
 20
1372.490685
 30
0.0
 11
808.450508
 21
1372.490685
 31
0.0
  0
LINE
  5
7C
330
1F
100
AcDbEntity
  8
001
 62
     5
370
    30
100
AcDbLine
 10
1284.450508
 20
1317.490685
 30
0.0
 11
998.450508
 21
1317.490685
 31
0.0
  0
LINE
  5
7D
330
1F
100
AcDbEntity
  8
001
 62
     5
370
    30
100
AcDbLine
 10
808.450508
 20
1317.490685
 30
0.0
 11
808.450508
 21
1372.490685
 31
0.0
  0
LINE
  5
7E
330
1F
100
AcDbEntity
  8
001
 62
     5
370
    30
100
AcDbLine
 10
1284.450508
 20
1317.490685
 30
0.0
 11
1284.450508
 21
1372.490685
 31
0.0
  0
LINE
  5
7F
330
1F
100
AcDbEntity
  8
001
 62
     5
370
    30
100
AcDbLine
 10
1303.450508
 20
1352.490685
 30
0.0
 11
1284.450508
 21
1352.490685
 31
0.0
  0
ARC
  5
80
330
1F
100
AcDbEntity
  8
001
 62
     5
370
    30
100
AcDbCircle
 10
823.950508
 20
1267.490685
 30
0.0
 40
4.5
100
AcDbArc
 50
270.0
 51
90.0
  0
ARC
  5
81
330
1F
100
AcDbEntity
  8
001
 62
     5
370
    30
100
AcDbCircle
 10
812.950508
 20
1267.490685
 30
0.0
 40
4.5
100
AcDbArc
 50
90.0
 51
270.0
  0
ARC
  5
82
330
1F
100
AcDbEntity
  8
001
 62
     5
370
    30
100
AcDbCircle
 10
823.950508
 20
1153.490685
 30
0.0
 40
4.5
100
AcDbArc
 50
270.0
 51
90.0
  0
ARC
  5
83
330
1F
100
AcDbEntity
  8
001
 62
     5
370
    30
100
AcDbCircle
 10
812.950508
 20
1153.490685
 30
0.0
 40
4.5
100
AcDbArc
 50
90.0
 51
270.0
  0
ARC
  5
84
330
1F
100
AcDbEntity
  8
001
 62
     5
370
    30
100
AcDbCircle
 10
1033.950508
 20
1153.490685
 30
0.0
 40
4.5
100
AcDbArc
 50
270.0
 51
90.0
  0
ARC
  5
85
330
1F
100
AcDbEntity
  8
001
 62
     5
370
    30
100
AcDbCircle
 10
1022.950508
 20
1153.490685
 30
0.0
 40
4.5
100
AcDbArc
 50
90.0
 51
270.0
  0
ARC
  5
86
330
1F
100
AcDbEntity
  8
001
 62
     5
370
    30
100
AcDbCircle
 10
1033.950508
 20
1267.490685
 30
0.0
 40
4.5
100
AcDbArc
 50
270.0
 51
90.0
  0
ARC
  5
87
330
1F
100
AcDbEntity
  8
001
 62
     5
370
    30
100
AcDbCircle
 10
1022.950508
 20
1267.490685
 30
0.0
 40
4.5
100
AcDbArc
 50
90.0
 51
270.0
  0
LINE
  5
88
330
1F
100
AcDbEntity
  8
001
 62
     5
370
    30
100
AcDbLine
 10
803.450508
 20
1252.490685
 30
0.0
 11
803.450508
 21
1282.490685
 31
0.0
  0
ARC
  5
89
330
1F
100
AcDbEntity
  8
001
 62
     5
370
    30
100
AcDbCircle
 10
808.450508
 20
1282.490685
 30
0.0
 40
5.0
100
AcDbArc
 50
90.0
 51
180.0
  0
ARC
  5
8A
330
1F
100
AcDbEntity
  8
001
 62
     5
370
    30
100
AcDbCircle
 10
808.450508
 20
1252.490685
 30
0.0
 40
5.0
100
AcDbArc
 50
180.0
 51
270.0
  0
LINE
  5
8B
330
1F
100
AcDbEntity
  8
001
 62
     5
370
    30
100
AcDbLine
 10
858.450508
 20
1102.490685
 30
0.0
 11
988.450508
 21
1102.490685
 31
0.0
  0
LINE
  5
8C
330
1F
100
AcDbEntity
  8
001
 62
     5
370
    30
100
AcDbLine
 10
835.450508
 20
1125.490685
 30
0.0
 11
858.450508
 21
1102.490685
 31
0.0
  0
LINE
  5
8D
330
1F
100
AcDbEntity
  8
001
 62
     5
370
    30
100
AcDbLine
 10
988.450508
 20
1318.490685
 30
0.0
 11
1011.450508
 21
1295.490685
 31
0.0
  0
LINE
  5
8E
330
1F
100
AcDbEntity
  8
001
 62
     5
370
    30
100
AcDbLine
 10
1011.450508
 20
1125.490685
 30
0.0
 11
988.450508
 21
1102.490685
 31
0.0
  0
LINE
  5
8F
330
1F
100
AcDbEntity
  8
001
 62
     5
370
    30
100
AcDbLine
 10
1043.450508
 20
1252.490685
 30
0.0
 11
1043.450508
 21
1282.490685
 31
0.0
  0
ARC
  5
90
330
1F
100
AcDbEntity
  8
001
 62
     5
370
    30
100
AcDbCircle
 10
1038.450508
 20
1282.490685
 30
0.0
 40
5.0
100
AcDbArc
 50
0.0
 51
90.0
  0
ARC
  5
91
330
1F
100
AcDbEntity
  8
001
 62
     5
370
    30
100
AcDbCircle
 10
1038.450508
 20
1252.490685
 30
0.0
 40
5.0
100
AcDbArc
 50
270.0
 51
0.0
  0
LINE
  5
92
330
1F
100
AcDbEntity
  8
001
 62
     5
370
    30
100
AcDbLine
 10
808.450508
 20
1287.490685
 30
0.0
 11
835.450508
 21
1287.490685
 31
0.0
  0
LINE
  5
93
330
1F
100
AcDbEntity
  8
001
 62
     5
370
    30
100
AcDbLine
 10
1011.450508
 20
1287.490685
 30
0.0
 11
1038.450508
 21
1287.490685
 31
0.0
  0
LINE
  5
94
330
1F
100
AcDbEntity
  8
001
 62
     5
370
    30
100
AcDbLine
 10
808.450508
 20
1247.490685
 30
0.0
 11
835.450508
 21
1247.490685
 31
0.0
  0
LINE
  5
95
330
1F
100
AcDbEntity
  8
001
 62
     5
370
    30
100
AcDbLine
 10
803.450508
 20
1168.490685
 30
0.0
 11
803.450508
 21
1138.490685
 31
0.0
  0
ARC
  5
96
330
1F
100
AcDbEntity
  8
001
 62
     5
370
    30
100
AcDbCircle
 10
808.450508
 20
1138.490685
 30
0.0
 40
5.0
100
AcDbArc
 50
180.0
 51
270.0
  0
ARC
  5
97
330
1F
100
AcDbEntity
  8
001
 62
     5
370
    30
100
AcDbCircle
 10
808.450508
 20
1168.490685
 30
0.0
 40
5.0
100
AcDbArc
 50
90.0
 51
180.0
  0
LINE
  5
98
330
1F
100
AcDbEntity
  8
001
 62
     5
370
    30
100
AcDbLine
 10
1043.450508
 20
1168.490685
 30
0.0
 11
1043.450508
 21
1138.490685
 31
0.0
  0
ARC
  5
99
330
1F
100
AcDbEntity
  8
001
 62
     5
370
    30
100
AcDbCircle
 10
1038.450508
 20
1138.490685
 30
0.0
 40
5.0
100
AcDbArc
 50
270.0
 51
0.0
  0
ARC
  5
9A
330
1F
100
AcDbEntity
  8
001
 62
     5
370
    30
100
AcDbCircle
 10
1038.450508
 20
1168.490685
 30
0.0
 40
5.0
100
AcDbArc
 50
0.0
 51
90.0
  0
LINE
  5
9B
330
1F
100
AcDbEntity
  8
001
 62
     5
370
    30
100
AcDbLine
 10
808.450508
 20
1133.490685
 30
0.0
 11
835.450508
 21
1133.490685
 31
0.0
  0
LINE
  5
9C
330
1F
100
AcDbEntity
  8
001
 62
     5
370
    30
100
AcDbLine
 10
1011.450508
 20
1133.490685
 30
0.0
 11
1038.450508
 21
1133.490685
 31
0.0
  0
LINE
  5
9D
330
1F
100
AcDbEntity
  8
001
 62
     5
370
    30
100
AcDbLine
 10
808.450508
 20
1173.490685
 30
0.0
 11
835.450508
 21
1173.490685
 31
0.0
  0
LINE
  5
9E
330
1F
100
AcDbEntity
  8
001
 62
     5
370
    30
100
AcDbLine
 10
1011.450508
 20
1173.490685
 30
0.0
 11
1038.450508
 21
1173.490685
 31
0.0
  0
LINE
  5
9F
330
1F
100
AcDbEntity
  8
001
  6
CENTER
 62
     5
370
     9
100
AcDbLine
 10
794.208985
 20
1267.490685
 30
0.0
 11
828.450508
 21
1267.490685
 31
0.0
  0
LINE
  5
A0
330
1F
100
AcDbEntity
  8
001
  6
CENTER
 62
     5
370
     9
100
AcDbLine
 10
1018.450508
 20
1267.490685
 30
0.0
 11
1043.450508
 21
1267.490685
 31
0.0
  0
LINE
  5
A1
330
1F
100
AcDbEntity
  8
001
  6
CENTER
 62
     5
370
     9
100
AcDbLine
 10
794.208985
 20
1153.490685
 30
0.0
 11
828.450508
 21
1153.490685
 31
0.0
  0
LINE
  5
A2
330
1F
100
AcDbEntity
  8
001
  6
CENTER
 62
     5
370
     9
100
AcDbLine
 10
1018.450508
 20
1153.490685
 30
0.0
 11
1043.450508
 21
1153.490685
 31
0.0
  0
CIRCLE
  5
A3
330
1F
100
AcDbEntity
  8
001
 62
     5
370
    30
100
AcDbCircle
 10
1004.450508
 20
1170.490685
 30
0.0
 40
4.75
  0
CIRCLE
  5
A4
330
1F
100
AcDbEntity
  8
001
 62
     5
370
    30
100
AcDbCircle
 10
842.450508
 20
1170.490685
 30
0.0
 40
4.75
  0
CIRCLE
  5
A5
330
1F
100
AcDbEntity
  8
001
 62
     5
370
    30
100
AcDbCircle
 10
842.450508
 20
1250.490685
 30
0.0
 40
4.75
  0
CIRCLE
  5
A6
330
1F
100
AcDbEntity
  8
001
 62
     5
370
    30
100
AcDbCircle
 10
923.450508
 20
1108.990685
 30
0.0
 40
4.75
  0
CIRCLE
  5
A7
330
1F
100
AcDbEntity
  8
001
 62
     5
370
    30
100
AcDbCircle
 10
923.450508
 20
1311.990685
 30
0.0
 40
4.75
  0
CIRCLE
  5
A8
330
1F
100
AcDbEntity
  8
001
 62
     5
370
    30
100
AcDbCircle
 10
986.450508
 20
1311.990685
 30
0.0
 40
4.75
  0
CIRCLE
  5
A9
330
1F
100
AcDbEntity
  8
001
 62
     5
370
    30
100
AcDbCircle
 10
860.450508
 20
1108.990685
 30
0.0
 40
4.75
  0
CIRCLE
  5
AA
330
1F
100
AcDbEntity
  8
001
 62
     5
370
    30
100
AcDbCircle
 10
986.450508
 20
1108.990685
 30
0.0
 40
4.75
  0
LINE
  5
AB
330
1F
100
AcDbEntity
  8
001
  6
CENTER
 62
     5
370
     9
100
AcDbLine
 10
835.450508
 20
1250.490685
 30
0.0
 11
860.450508
 21
1250.490685
 31
0.0
  0
LINE
  5
AC
330
1F
100
AcDbEntity
  8
001
  6
CENTER
 62
     5
370
     9
100
AcDbLine
 10
835.450508
 20
1170.490685
 30
0.0
 11
860.450508
 21
1170.490685
 31
0.0
  0
LINE
  5
AD
330
1F
100
AcDbEntity
  8
001
  6
CENTER
 62
     5
370
     9
100
AcDbLine
 10
986.450508
 20
1170.490685
 30
0.0
 11
1011.450508
 21
1170.490685
 31
0.0
  0
LINE
  5
AE
330
1F
100
AcDbEntity
  8
001
  6
CENTER
 62
     5
370
     9
100
AcDbLine
 10
986.450508
 20
1318.490685
 30
0.0
 11
986.450508
 21
1307.240685
 31
0.0
  0
LINE
  5
AF
330
1F
100
AcDbEntity
  8
001
  6
CENTER
 62
     5
370
     9
100
AcDbLine
 10
986.450508
 20
1113.740685
 30
0.0
 11
986.450508
 21
1102.490685
 31
0.0
  0
LINE
  5
B0
330
1F
100
AcDbEntity
  8
001
  6
CENTER
 62
     5
370
     9
100
AcDbLine
 10
893.450508
 20
1184.008839
 30
0.0
 11
893.450508
 21
1228.094631
 31
0.0
  0
LINE
  5
B1
330
1F
100
AcDbEntity
  8
001
  6
CENTER
 62
     5
370
     9
100
AcDbLine
 10
945.450508
 20
1150.490685
 30
0.0
 11
981.450508
 21
1150.490685
 31
0.0
  0
LINE
  5
B2
330
1F
100
AcDbEntity
  8
001
  6
CENTER
 62
     5
370
     9
100
AcDbLine
 10
903.450508
 20
1250.490685
 30
0.0
 11
1011.450508
 21
1250.490685
 31
0.0
  0
LINE
  5
B3
330
1F
100
AcDbEntity
  8
001
  6
CENTER
 62
     5
370
     9
100
AcDbLine
 10
1028.450508
 20
1287.490685
 30
0.0
 11
1028.450508
 21
1247.490685
 31
0.0
  0
LINE
  5
B4
330
1F
100
AcDbEntity
  8
001
  6
CENTER
 62
     5
370
     9
100
AcDbLine
 10
1028.450508
 20
1173.490685
 30
0.0
 11
1028.450508
 21
1133.490685
 31
0.0
  0
LINE
  5
B5
330
1F
100
AcDbEntity
  8
001
  6
CENTER
 62
     5
370
     9
100
AcDbLine
 10
818.450508
 20
1287.490685
 30
0.0
 11
818.450508
 21
1247.490685
 31
0.0
  0
LINE
  5
B6
330
1F
100
AcDbEntity
  8
001
  6
CENTER
 62
     5
370
     9
100
AcDbLine
 10
818.450508
 20
1173.490685
 30
0.0
 11
818.450508
 21
1133.490685
 31
0.0
  0
LINE
  5
B7
330
1F
100
AcDbEntity
  8
001
  6
CENTER
 62
     5
370
     9
100
AcDbLine
 10
851.950508
 20
1108.990685
 30
0.0
 11
994.950508
 21
1108.990685
 31
0.0
  0
CIRCLE
  5
B8
330
1F
100
AcDbEntity
  8
001
 62
     5
370
    30
100
AcDbCircle
 10
963.450508
 20
1150.490685
 30
0.0
 40
17.0
  0
CIRCLE
  5
B9
330
1F
100
AcDbEntity
  8
001
 62
     5
370
    30
100
AcDbCircle
 10
963.450508
 20
1150.490685
 30
0.0
 40
18.0
  0
LINE
  5
BA
330
1F
100
AcDbEntity
  8
001
  6
CENTER
 62
     5
370
     9
100
AcDbLine
 10
963.450508
 20
1318.490685
 30
0.0
 11
963.450508
 21
1190.490685
 31
0.0
  0
LINE
  5
BB
330
1F
100
AcDbEntity
  8
001
  6
CENTER
 62
     5
370
     9
100
AcDbLine
 10
963.450508
 20
1168.490685
 30
0.0
 11
963.450508
 21
1132.490685
 31
0.0
  0
LINE
  5
BC
330
1F
100
AcDbEntity
  8
001
 62
     5
370
    30
100
AcDbLine
 10
1284.450508
 20
1317.490685
 30
0.0
 11
1303.450508
 21
1317.490685
 31
0.0
  0
LINE
  5
BD
330
1F
100
AcDbEntity
  8
001
  6
CENTER
 62
     5
370
     9
100
AcDbLine
 10
923.450508
 20
1307.240685
 30
0.0
 11
923.450508
 21
1372.490685
 31
0.0
  0
LINE
  5
BE
330
1F
100
AcDbEntity
  8
001
 62
     5
370
    30
100
AcDbLine
 10
1033.450508
 20
1317.490685
 30
0.0
 11
1033.450508
 21
1372.490685
 31
0.0
  0
LINE
  5
BF
330
1F
100
AcDbEntity
  8
001
 62
     5
370
    30
100
AcDbLine
 10
1143.800508
 20
1173.990685
 30
0.0
 11
1143.800508
 21
1313.390685
 31
0.0
  0
LINE
  5
C0
330
1F
100
AcDbEntity
  8
001
 62
     5
370
    30
100
AcDbLine
 10
1161.843508
 20
1315.938285
 30
0.0
 11
1258.527508
 21
1315.938285
 31
0.0
  0
ARC
  5
C1
330
1F
100
AcDbEntity
  8
001
 62
     5
370
    30
100
AcDbCircle
 10
1258.528208
 20
1308.643185
 30
0.0
 40
7.294999999999973
100
AcDbArc
 50
75.7143
 51
90.0053
  0
LINE
  5
C2
330
1F
100
AcDbEntity
  8
001
 62
     5
370
    30
100
AcDbLine
 10
1281.450508
 20
1151.990685
 30
0.0
 11
1275.603508
 21
1120.806385
 31
0.0
  0
LINE
  5
C3
330
1F
100
AcDbEntity
  8
001
 62
     5
370
    30
100
AcDbLine
 10
1149.450508
 20
1313.390685
 30
0.0
 11
1160.022508
 21
1315.761385
 31
0.0
  0
LINE
  5
C4
330
1F
100
AcDbEntity
  8
001
 62
     5
370
    30
100
AcDbLine
 10
1269.450508
 20
1313.390685
 30
0.0
 11
1260.328308
 21
1315.712685
 31
0.0
  0
ARC
  5
C5
330
1F
100
AcDbEntity
  8
001
 62
     5
370
    30
100
AcDbCircle
 10
1197.250408
 20
1314.690785
 30
0.0
 40
2.79990000000005
100
AcDbArc
 50
89.9987
 51
154.084
  0
ARC
  5
C6
330
1F
100
AcDbEntity
  8
001
 62
     5
370
    30
100
AcDbCircle
 10
1221.650608
 20
1314.690785
 30
0.0
 40
2.799800000000056
100
AcDbArc
 50
27.4471
 51
90.0025
  0
LINE
  5
C7
330
1F
100
AcDbEntity
  8
001
 62
     5
370
    30
100
AcDbLine
 10
1143.800508
 20
1311.090685
 30
0.0
 11
1275.100408
 21
1311.090685
 31
0.0
  0
LINE
  5
C8
330
1F
100
AcDbEntity
  8
001
 62
     5
370
    30
100
AcDbLine
 10
1143.800508
 20
1313.390685
 30
0.0
 11
1275.100408
 21
1313.390685
 31
0.0
  0
ARC
  5
C9
330
1F
100
AcDbEntity
  8
001
 62
     5
370
    30
100
AcDbCircle
 10
1161.619808
 20
1308.638185
 30
0.0
 40
7.300100000000029
100
AcDbArc
 50
88.2574
 51
102.6389
  0
ARC
  5
CA
330
1F
100
AcDbEntity
  8
001
 62
     5
370
    30
100
AcDbCircle
 10
1209.450508
 20
1313.390685
 30
0.0
 40
3.0
100
AcDbArc
 50
0.0
 51
180.0
  0
LINE
  5
CB
330
1F
100
AcDbEntity
  8
001
 62
     5
370
    30
100
AcDbLine
 10
1207.493008
 20
1315.646685
 30
0.0
 11
1209.499508
 21
1315.026485
 31
0.0
  0
LINE
  5
CC
330
1F
100
AcDbEntity
  8
001
 62
     5
370
    30
100
AcDbLine
 10
1211.408008
 20
1315.646685
 30
0.0
 11
1209.401508
 21
1315.026485
 31
0.0
  0
LINE
  5
CD
330
1F
100
AcDbEntity
  8
001
 62
     5
370
    30
100
AcDbLine
 10
1144.280408
 20
1119.990685
 30
0.0
 11
1274.511008
 21
1119.990685
 31
0.0
  0
LINE
  5
CE
330
1F
100
AcDbEntity
  8
001
 62
     5
370
    30
100
AcDbLine
 10
1284.450508
 20
1173.990685
 30
0.0
 11
1134.450508
 21
1173.990685
 31
0.0
  0
LINE
  5
CF
330
1F
100
AcDbEntity
  8
001
 62
     5
370
    30
100
AcDbLine
 10
1283.464651
 20
1151.990685
 30
0.0
 11
1135.450508
 21
1151.990685
 31
0.0
  0
LINE
  5
D0
330
1F
100
AcDbEntity
  8
001
 62
     5
370
    30
100
AcDbLine
 10
1284.450508
 20
1173.990685
 30
0.0
 11
1284.450508
 21
1152.990685
 31
0.0
  0
ARC
  5
D1
330
1F
100
AcDbEntity
  8
001
 62
     5
370
    30
100
AcDbCircle
 10
1283.450508
 20
1152.990685
 30
0.0
 40
1.000100000000001
100
AcDbArc
 50
270.0035
 51
0.0
  0
ARC
  5
D2
330
1F
100
AcDbEntity
  8
001
 62
     5
370
    30
100
AcDbCircle
 10
1274.620708
 20
1120.990585
 30
0.0
 40
0.9999000000000192
100
AcDbArc
 50
269.9965
 51
349.3825
  0
LINE
  5
D3
330
1F
100
AcDbEntity
  8
001
 62
     5
370
    30
100
AcDbLine
 10
1275.100408
 20
1173.990685
 30
0.0
 11
1275.100408
 21
1313.434485
 31
0.0
  0
LINE
  5
D4
330
1F
100
AcDbEntity
  8
001
 62
     5
370
    30
100
AcDbLine
 10
1137.450508
 20
1151.990685
 30
0.0
 11
1143.297508
 21
1120.806385
 31
0.0
  0
LINE
  5
D5
330
1F
100
AcDbEntity
  8
001
 62
     5
370
    30
100
AcDbLine
 10
1134.450508
 20
1173.990685
 30
0.0
 11
1134.450508
 21
1152.990685
 31
0.0
  0
ARC
  5
D6
330
1F
100
AcDbEntity
  8
001
 62
     5
370
    30
100
AcDbCircle
 10
1135.450508
 20
1152.990685
 30
0.0
 40
1.000100000000001
100
AcDbArc
 50
180.0
 51
269.9965
  0
ARC
  5
D7
330
1F
100
AcDbEntity
  8
001
 62
     5
370
    30
100
AcDbCircle
 10
1144.280308
 20
1120.990585
 30
0.0
 40
0.9999000000000192
100
AcDbArc
 50
190.6175
 51
270.0035
  0
LINE
  5
D8
330
1F
100
AcDbEntity
  8
001
 62
     5
370
    30
100
AcDbLine
 10
1207.278572
 20
1169.252588
 30
0.0
 11
1211.622444
 21
1169.252588
 31
0.0
  0
LINE
  5
D9
330
1F
100
AcDbEntity
  8
001
 62
     5
370
    30
100
AcDbLine
 10
1211.622444
 20
1169.252588
 30
0.0
 11
1213.79438
 21
1165.490685
 31
0.0
  0
LINE
  5
DA
330
1F
100
AcDbEntity
  8
001
 62
     5
370
    30
100
AcDbLine
 10
1213.79438
 20
1165.490685
 30
0.0
 11
1211.622444
 21
1161.728781
 31
0.0
  0
LINE
  5
DB
330
1F
100
AcDbEntity
  8
001
 62
     5
370
    30
100
AcDbLine
 10
1211.622444
 20
1161.728781
 30
0.0
 11
1207.278572
 21
1161.728781
 31
0.0
  0
LINE
  5
DC
330
1F
100
AcDbEntity
  8
001
 62
     5
370
    30
100
AcDbLine
 10
1207.278572
 20
1161.728781
 30
0.0
 11
1205.106636
 21
1165.490685
 31
0.0
  0
LINE
  5
DD
330
1F
100
AcDbEntity
  8
001
 62
     5
370
    30
100
AcDbLine
 10
1205.106636
 20
1165.490685
 30
0.0
 11
1207.278572
 21
1169.252588
 31
0.0
  0
LINE
  5
DE
330
1F
100
AcDbEntity
  8
001
  6
CENTER
 62
     5
370
     9
100
AcDbLine
 10
1265.450508
 20
1200.990685
 30
0.0
 11
1265.450508
 21
1190.990685
 31
0.0
  0
LINE
  5
DF
330
1F
100
AcDbEntity
  8
001
  6
CENTER
 62
     5
370
     9
100
AcDbLine
 10
1270.450508
 20
1285.990685
 30
0.0
 11
1260.450508
 21
1285.990685
 31
0.0
  0
LINE
  5
E0
330
1F
100
AcDbEntity
  8
001
  6
CENTER
 62
     5
370
     9
100
AcDbLine
 10
1265.450508
 20
1290.990685
 30
0.0
 11
1265.450508
 21
1280.990685
 31
0.0
  0
LINE
  5
E1
330
1F
100
AcDbEntity
  8
001
  6
CENTER
 62
     5
370
     9
100
AcDbLine
 10
1153.450508
 20
1290.990685
 30
0.0
 11
1153.450508
 21
1280.990685
 31
0.0
  0
LINE
  5
E2
330
1F
100
AcDbEntity
  8
001
  6
CENTER
 62
     5
370
     9
100
AcDbLine
 10
1158.450508
 20
1285.990685
 30
0.0
 11
1148.450508
 21
1285.990685
 31
0.0
  0
LINE
  5
E3
330
1F
100
AcDbEntity
  8
001
  6
CENTER
 62
     5
370
     9
100
AcDbLine
 10
1153.450508
 20
1200.990685
 30
0.0
 11
1153.450508
 21
1190.990685
 31
0.0
  0
LINE
  5
E4
330
1F
100
AcDbEntity
  8
001
  6
CENTER
 62
     5
370
     9
100
AcDbLine
 10
1158.450508
 20
1195.990685
 30
0.0
 11
1148.450508
 21
1195.990685
 31
0.0
  0
LINE
  5
E5
330
1F
100
AcDbEntity
  8
001
  6
CENTER
 62
     5
370
     9
100
AcDbLine
 10
1260.450508
 20
1195.990685
 30
0.0
 11
1288.441096
 21
1195.990685
 31
0.0
  0
CIRCLE
  5
E6
330
1F
100
AcDbEntity
  8
001
 62
     5
370
    30
100
AcDbCircle
 10
1209.450508
 20
1165.490685
 30
0.0
 40
4.343872120585529
  0
LINE
  5
E7
330
1F
100
AcDbEntity
  8
001
  6
CENTER
 62
     5
370
     9
100
AcDbLine
 10
1209.450508
 20
1343.115659
 30
0.0
 11
1209.450508
 21
1100.455185
 31
0.0
  0
ARC
  5
E8
330
1F
100
AcDbEntity
  8
001
 62
     5
370
    30
100
AcDbCircle
 10
1209.450508
 20
601.206152
 30
0.0
 40
74.99999999999999
100
AcDbArc
 50
292.9084
 51
247.017
  0
ARC
  5
E9
330
1F
100
AcDbEntity
  8
001
 62
     5
370
    30
100
AcDbCircle
 10
1209.450508
 20
601.206152
 30
0.0
 40
71.99999999999994
100
AcDbArc
 50
289.1258
 51
250.9117
  0
CIRCLE
  5
EA
330
1F
100
AcDbEntity
  8
001
 62
     5
370
    30
100
AcDbCircle
 10
1209.450508
 20
601.206152
 30
0.0
 40
59.0
  0
CIRCLE
  5
EB
330
1F
100
AcDbEntity
  8
001
 62
     5
370
    30
100
AcDbCircle
 10
1209.450508
 20
601.206152
 30
0.0
 40
66.0
  0
ARC
  5
EC
330
1F
100
AcDbEntity
  8
001
 62
     5
370
    30
100
AcDbCircle
 10
1227.420508
 20
611.581152
 30
0.0
 40
2.750000000000012
100
AcDbArc
 50
119.9998
 51
210.0001
  0
LINE
  5
ED
330
1F
100
AcDbEntity
  8
001
 62
     5
370
    30
100
AcDbLine
 10
1146.656008
 20
559.969252
 30
0.0
 11
1142.341008
 21
567.443052
 31
0.0
  0
LINE
  5
EE
330
1F
100
AcDbEntity
  8
001
 62
     5
370
    30
100
AcDbLine
 10
1205.135508
 20
676.206152
 30
0.0
 11
1213.765508
 21
676.206152
 31
0.0
  0
LINE
  5
EF
330
1F
100
AcDbEntity
  8
001
 62
     5
370
    30
100
AcDbLine
 10
1276.559808
 20
567.442952
 30
0.0
 11
1272.244908
 21
559.969252
 31
0.0
  0
CIRCLE
  5
F0
330
1F
100
AcDbEntity
  8
001
 62
     5
370
    30
100
AcDbCircle
 10
1209.450508
 20
646.206152
 30
0.0
 40
3.0
  0
CIRCLE
  5
F1
330
1F
100
AcDbEntity
  8
001
 62
     5
370
    30
100
AcDbCircle
 10
1209.450508
 20
601.206152
 30
0.0
 40
15.0
  0
CIRCLE
  5
F2
330
1F
100
AcDbEntity
  8
001
 62
     5
370
    30
100
AcDbCircle
 10
1209.450508
 20
601.206152
 30
0.0
 40
10.0
  0
CIRCLE
  5
F3
330
1F
100
AcDbEntity
  8
001
 62
     5
370
    30
100
AcDbCircle
 10
1209.450508
 20
601.206152
 30
0.0
 40
7.5
  0
ARC
  5
F4
330
1F
100
AcDbEntity
  8
001
 62
     5
370
    30
100
AcDbCircle
 10
1191.480408
 20
611.581152
 30
0.0
 40
2.750000000000012
100
AcDbArc
 50
240.0002
 51
329.9999
  0
ARC
  5
F5
330
1F
100
AcDbEntity
  8
001
 62
     5
370
    30
100
AcDbCircle
 10
1253.844808
 20
626.837252
 30
0.0
 40
2.750000000000009
100
AcDbArc
 50
30.0001
 51
119.9998
  0
LINE
  5
F6
330
1F
100
AcDbEntity
  8
001
 62
     5
370
    30
100
AcDbLine
 10
1188.075508
 20
584.246552
 30
0.0
 11
1187.950508
 21
584.174352
 31
0.0
  0
LINE
  5
F7
330
1F
100
AcDbEntity
  8
001
 62
     5
370
    30
100
AcDbLine
 10
1230.825508
 20
584.246552
 30
0.0
 11
1230.950508
 21
584.174352
 31
0.0
  0
ARC
  5
F8
330
1F
100
AcDbEntity
  8
001
 62
     5
370
    30
100
AcDbCircle
 10
1209.450508
 20
580.456152
 30
0.0
 40
2.75
100
AcDbArc
 50
0.0
 51
90.0
  0
ARC
  5
F9
330
1F
100
AcDbEntity
  8
001
 62
     5
370
    30
100
AcDbCircle
 10
1209.450508
 20
549.943952
 30
0.0
 40
2.75
100
AcDbArc
 50
270.0
 51
0.0
  0
LINE
  5
FA
330
1F
100
AcDbEntity
  8
001
 62
     5
370
    30
100
AcDbLine
 10
1212.200508
 20
550.064952
 30
0.0
 11
1212.200508
 21
580.456152
 31
0.0
  0
LINE
  5
FB
330
1F
100
AcDbEntity
  8
001
 62
     5
370
    30
100
AcDbLine
 10
1216.700508
 20
551.032652
 30
0.0
 11
1216.700508
 21
583.024752
 31
0.0
  0
LINE
  5
FC
330
1F
100
AcDbEntity
  8
001
 62
     5
370
    30
100
AcDbLine
 10
1222.200508
 20
551.032652
 30
0.0
 11
1222.200508
 21
583.024752
 31
0.0
  0
LINE
  5
FD
330
1F
100
AcDbEntity
  8
001
 62
     5
370
    30
100
AcDbLine
 10
1226.700508
 20
554.350652
 30
0.0
 11
1226.700508
 21
581.864952
 31
0.0
  0
LINE
  5
FE
330
1F
100
AcDbEntity
  8
001
 62
     5
370
    30
100
AcDbLine
 10
1232.200508
 20
554.350652
 30
0.0
 11
1232.200508
 21
582.009252
 31
0.0
  0
LINE
  5
FF
330
1F
100
AcDbEntity
  8
001
 62
     5
370
    30
100
AcDbLine
 10
1236.700508
 20
560.571852
 30
0.0
 11
1236.700508
 21
576.091452
 31
0.0
  0
LINE
  5
100
330
1F
100
AcDbEntity
  8
001
 62
     5
370
    30
100
AcDbLine
 10
1242.200508
 20
560.571852
 30
0.0
 11
1242.200508
 21
576.091452
 31
0.0
  0
ARC
  5
101
330
1F
100
AcDbEntity
  8
001
 62
     5
370
    30
100
AcDbCircle
 10
1209.450508
 20
580.456152
 30
0.0
 40
2.75
100
AcDbArc
 50
90.0
 51
180.0
  0
ARC
  5
102
330
1F
100
AcDbEntity
  8
001
 62
     5
370
    30
100
AcDbCircle
 10
1209.450508
 20
549.943952
 30
0.0
 40
2.75
100
AcDbArc
 50
180.0
 51
270.0
  0
LINE
  5
103
330
1F
100
AcDbEntity
  8
001
 62
     5
370
    30
100
AcDbLine
 10
1206.700508
 20
550.064952
 30
0.0
 11
1206.700508
 21
580.456152
 31
0.0
  0
ARC
  5
104
330
1F
100
AcDbEntity
  8
001
 62
     5
370
    30
100
AcDbCircle
 10
1165.056108
 20
626.837252
 30
0.0
 40
2.750000000000023
100
AcDbArc
 50
149.9999
 51
240.0002
  0
LINE
  5
105
330
1F
100
AcDbEntity
  8
001
 62
     5
370
    30
100
AcDbLine
 10
1202.200508
 20
551.032652
 30
0.0
 11
1202.200508
 21
583.024752
 31
0.0
  0
ARC
  5
106
330
1F
100
AcDbEntity
  8
001
 62
     5
370
    30
100
AcDbCircle
 10
1219.450508
 20
583.024752
 30
0.0
 40
2.75
100
AcDbArc
 50
118.8109
 51
180.0
  0
ARC
  5
107
330
1F
100
AcDbEntity
  8
001
 62
     5
370
    30
100
AcDbCircle
 10
1239.450508
 20
576.091452
 30
0.0
 40
2.75
100
AcDbArc
 50
60.0002
 51
180.0
  0
LINE
  5
108
330
1F
100
AcDbEntity
  8
001
 62
     5
370
    30
100
AcDbLine
 10
1196.700508
 20
551.032652
 30
0.0
 11
1196.700508
 21
583.024752
 31
0.0
  0
LINE
  5
109
330
1F
100
AcDbEntity
  8
001
 62
     5
370
    30
100
AcDbLine
 10
1252.365108
 20
629.158352
 30
0.0
 11
1226.045508
 21
613.962752
 31
0.0
  0
LINE
  5
10A
330
1F
100
AcDbEntity
  8
001
 62
     5
370
    30
100
AcDbLine
 10
1163.785808
 20
624.395152
 30
0.0
 11
1190.105408
 21
609.199552
 31
0.0
  0
ARC
  5
10B
330
1F
100
AcDbEntity
  8
001
 62
     5
370
    30
100
AcDbCircle
 10
1239.450508
 20
576.091452
 30
0.0
 40
2.750000000000009
100
AcDbArc
 50
0.0
 51
60.0002
  0
ARC
  5
10C
330
1F
100
AcDbEntity
  8
001
 62
     5
370
    30
100
AcDbCircle
 10
1239.450508
 20
560.492152
 30
0.0
 40
2.749999999999986
100
AcDbArc
 50
180.0
 51
3.6024
  0
ARC
  5
10D
330
1F
100
AcDbEntity
  8
001
 62
     5
370
    30
100
AcDbCircle
 10
1229.450508
 20
581.864952
 30
0.0
 40
2.75
100
AcDbArc
 50
60.0002
 51
180.0
  0
ARC
  5
10E
330
1F
100
AcDbEntity
  8
001
 62
     5
370
    30
100
AcDbCircle
 10
1219.450508
 20
583.024752
 30
0.0
 40
2.750000000000001
100
AcDbArc
 50
0.0
 51
118.8109
  0
ARC
  5
10F
330
1F
100
AcDbEntity
  8
001
 62
     5
370
    30
100
AcDbCircle
 10
1219.450508
 20
551.042052
 30
0.0
 40
2.750000000000026
100
AcDbArc
 50
180.0
 51
358.0082
  0
ARC
  5
110
330
1F
100
AcDbEntity
  8
001
 62
     5
370
    30
100
AcDbCircle
 10
1229.450508
 20
554.330752
 30
0.0
 40
2.75000000000002
100
AcDbArc
 50
180.0
 51
0.2899
  0
ARC
  5
111
330
1F
100
AcDbEntity
  8
001
 62
     5
370
    30
100
AcDbCircle
 10
1229.700508
 20
582.009252
 30
0.0
 40
2.500000000000042
100
AcDbArc
 50
0.0
 51
59.9997
  0
LINE
  5
112
330
1F
100
AcDbEntity
  8
001
 62
     5
370
    30
100
AcDbLine
 10
1192.200508
 20
554.350652
 30
0.0
 11
1192.200508
 21
581.864952
 31
0.0
  0
LINE
  5
113
330
1F
100
AcDbEntity
  8
001
 62
     5
370
    30
100
AcDbLine
 10
1186.700508
 20
554.350652
 30
0.0
 11
1186.700508
 21
582.009252
 31
0.0
  0
LINE
  5
114
330
1F
100
AcDbEntity
  8
001
 62
     5
370
    30
100
AcDbLine
 10
1182.200508
 20
560.571852
 30
0.0
 11
1182.200508
 21
576.091452
 31
0.0
  0
LINE
  5
115
330
1F
100
AcDbEntity
  8
001
 62
     5
370
    30
100
AcDbLine
 10
1176.700508
 20
560.571852
 30
0.0
 11
1176.700508
 21
576.091452
 31
0.0
  0
LINE
  5
116
330
1F
100
AcDbEntity
  8
001
 62
     5
370
    30
100
AcDbLine
 10
1211.838708
 20
676.206152
 30
0.0
 11
1211.838708
 21
679.586152
 31
0.0
  0
LINE
  5
117
330
1F
100
AcDbEntity
  8
001
 62
     5
370
    30
100
AcDbLine
 10
1205.635508
 20
680.086152
 30
0.0
 11
1213.265508
 21
680.086152
 31
0.0
  0
ARC
  5
118
330
1F
100
AcDbEntity
  8
001
 62
     5
370
    30
100
AcDbCircle
 10
1179.450508
 20
576.091452
 30
0.0
 40
2.749999999999958
100
AcDbArc
 50
0.0
 51
119.9995
  0
ARC
  5
119
330
1F
100
AcDbEntity
  8
001
 62
     5
370
    30
100
AcDbCircle
 10
1227.420508
 20
611.581152
 30
0.0
 40
2.750000000000009
100
AcDbArc
 50
210.0001
 51
299.9998
  0
ARC
  5
11A
330
1F
100
AcDbEntity
  8
001
 62
     5
370
    30
100
AcDbCircle
 10
1179.450508
 20
576.091452
 30
0.0
 40
2.75
100
AcDbArc
 50
119.9998
 51
180.0
  0
LINE
  5
11B
330
1F
100
AcDbEntity
  8
001
 62
     5
370
    30
100
AcDbLine
 10
1205.135508
 20
676.206152
 30
0.0
 11
1205.135508
 21
679.586152
 31
0.0
  0
LINE
  5
11C
330
1F
100
AcDbEntity
  8
001
 62
     5
370
    30
100
AcDbLine
 10
1213.765508
 20
676.206152
 30
0.0
 11
1213.765508
 21
679.586152
 31
0.0
  0
ARC
  5
11D
330
1F
100
AcDbEntity
  8
001
 62
     5
370
    30
100
AcDbCircle
 10
1179.450508
 20
560.492152
 30
0.0
 40
2.75
100
AcDbArc
 50
175.8915
 51
0.0
  0
ARC
  5
11E
330
1F
100
AcDbEntity
  8
001
 62
     5
370
    30
100
AcDbCircle
 10
1189.450508
 20
581.864952
 30
0.0
 40
2.749999999999958
100
AcDbArc
 50
0.0
 51
119.9995
  0
ARC
  5
11F
330
1F
100
AcDbEntity
  8
001
 62
     5
370
    30
100
AcDbCircle
 10
1199.450508
 20
583.024752
 30
0.0
 40
2.75
100
AcDbArc
 50
0.0
 51
180.0
  0
ARC
  5
120
330
1F
100
AcDbEntity
  8
001
 62
     5
370
    30
100
AcDbCircle
 10
1199.450508
 20
551.042052
 30
0.0
 40
2.75
100
AcDbArc
 50
180.1653
 51
0.0
  0
ARC
  5
121
330
1F
100
AcDbEntity
  8
001
 62
     5
370
    30
100
AcDbCircle
 10
1189.450508
 20
554.330752
 30
0.0
 40
2.75
100
AcDbArc
 50
179.7279
 51
0.0
  0
ARC
  5
122
330
1F
100
AcDbEntity
  8
001
 62
     5
370
    30
100
AcDbCircle
 10
1189.200508
 20
582.009252
 30
0.0
 40
2.5
100
AcDbArc
 50
120.0003
 51
180.0
  0
ARC
  5
123
330
1F
100
AcDbEntity
  8
001
 62
     5
370
    30
100
AcDbCircle
 10
1191.480408
 20
611.581152
 30
0.0
 40
2.750000000000023
100
AcDbArc
 50
329.9999
 51
60.0002
  0
ARC
  5
124
330
1F
100
AcDbEntity
  8
001
 62
     5
370
    30
100
AcDbCircle
 10
1253.844808
 20
626.837252
 30
0.0
 40
2.750000000000012
100
AcDbArc
 50
299.9998
 51
30.0001
  0
ARC
  5
125
330
1F
100
AcDbEntity
  8
001
 62
     5
370
    30
100
AcDbCircle
 10
1165.056108
 20
626.837252
 30
0.0
 40
2.750000000000012
100
AcDbArc
 50
60.0002
 51
149.9999
  0
LINE
  5
126
330
1F
100
AcDbEntity
  8
001
 62
     5
370
    30
100
AcDbLine
 10
1255.115108
 20
624.395152
 30
0.0
 11
1228.795508
 21
609.199552
 31
0.0
  0
LINE
  5
127
330
1F
100
AcDbEntity
  8
001
 62
     5
370
    30
100
AcDbLine
 10
1166.535908
 20
629.158352
 30
0.0
 11
1192.855408
 21
613.962752
 31
0.0
  0
ARC
  5
128
330
1F
100
AcDbEntity
  8
001
 62
     5
370
    30
100
AcDbCircle
 10
1220.196008
 20
618.957152
 30
0.0
 40
2.750000000000009
100
AcDbArc
 50
238.811
 51
299.9998
  0
ARC
  5
129
330
1F
100
AcDbEntity
  8
001
 62
     5
370
    30
100
AcDbCircle
 10
1188.704908
 20
601.636552
 30
0.0
 40
2.750000000000029
100
AcDbArc
 50
358.8109
 51
60.0
  0
ARC
  5
12A
330
1F
100
AcDbEntity
  8
001
 62
     5
370
    30
100
AcDbCircle
 10
1220.196008
 20
618.957152
 30
0.0
 40
2.749999999999954
100
AcDbArc
 50
120.001
 51
238.811
  0
ARC
  5
12B
330
1F
100
AcDbEntity
  8
001
 62
     5
370
    30
100
AcDbCircle
 10
1188.704908
 20
601.636552
 30
0.0
 40
2.750000000000002
100
AcDbArc
 50
240.0013
 51
358.8109
  0
ARC
  5
12C
330
1F
100
AcDbEntity
  8
001
 62
     5
370
    30
100
AcDbCircle
 10
1247.893908
 20
634.948452
 30
0.0
 40
2.750000000000019
100
AcDbArc
 50
299.9998
 51
118.0086
  0
ARC
  5
12D
330
1F
100
AcDbEntity
  8
001
 62
     5
370
    30
100
AcDbCircle
 10
1161.007008
 20
617.627952
 30
0.0
 40
2.750000000000016
100
AcDbArc
 50
60.0002
 51
238.0082
  0
ARC
  5
12E
330
1F
100
AcDbEntity
  8
001
 62
     5
370
    30
100
AcDbCircle
 10
1230.196008
 20
601.636552
 30
0.0
 40
2.749999999999994
100
AcDbArc
 50
119.9998
 51
300.0003
  0
ARC
  5
12F
330
1F
100
AcDbEntity
  8
001
 62
     5
370
    30
100
AcDbCircle
 10
1198.704908
 20
618.957152
 30
0.0
 40
2.750000000000023
100
AcDbArc
 50
240.0002
 51
60.0002
  0
ARC
  5
130
330
1F
100
AcDbEntity
  8
001
 62
     5
370
    30
100
AcDbCircle
 10
1257.893908
 20
617.627952
 30
0.0
 40
2.750000000000022
100
AcDbArc
 50
300.1645
 51
120.0004
  0
ARC
  5
131
330
1F
100
AcDbEntity
  8
001
 62
     5
370
    30
100
AcDbCircle
 10
1171.007008
 20
634.948452
 30
0.0
 40
2.749999999999958
100
AcDbArc
 50
60.1648
 51
240.0005
  0
LINE
  5
132
330
1F
100
AcDbEntity
  8
001
 62
     5
370
    30
100
AcDbLine
 10
1234.825508
 20
591.174652
 30
0.0
 11
1234.950508
 21
591.102552
 31
0.0
  0
LINE
  5
133
330
1F
100
AcDbEntity
  8
001
 62
     5
370
    30
100
AcDbLine
 10
1205.450508
 20
628.197352
 30
0.0
 11
1205.450408
 21
628.341652
 31
0.0
  0
LINE
  5
134
330
1F
100
AcDbEntity
  8
001
 62
     5
370
    30
100
AcDbLine
 10
1213.450508
 20
628.197352
 30
0.0
 11
1213.450508
 21
628.341652
 31
0.0
  0
LINE
  5
135
330
1F
100
AcDbEntity
  8
001
 62
     5
370
    30
100
AcDbLine
 10
1184.075408
 20
591.174652
 30
0.0
 11
1183.950408
 21
591.102552
 31
0.0
  0
LINE
  5
136
330
1F
100
AcDbEntity
  8
001
 62
     5
370
    30
100
AcDbLine
 10
1249.277008
 20
632.571552
 30
0.0
 11
1221.571008
 21
616.575552
 31
0.0
  0
LINE
  5
137
330
1F
100
AcDbEntity
  8
001
 62
     5
370
    30
100
AcDbLine
 10
1162.373908
 20
620.014252
 30
0.0
 11
1190.079908
 21
604.018152
 31
0.0
  0
LINE
  5
138
330
1F
100
AcDbEntity
  8
001
 62
     5
370
    30
100
AcDbLine
 10
1246.527008
 20
637.334752
 30
0.0
 11
1218.821008
 21
621.338652
 31
0.0
  0
LINE
  5
139
330
1F
100
AcDbEntity
  8
001
 62
     5
370
    30
100
AcDbLine
 10
1159.623908
 20
615.251052
 30
0.0
 11
1187.329908
 21
599.255052
 31
0.0
  0
LINE
  5
13A
330
1F
100
AcDbEntity
  8
001
 62
     5
370
    30
100
AcDbLine
 10
1241.403508
 20
639.572852
 30
0.0
 11
1217.575508
 21
625.815752
 31
0.0
  0
LINE
  5
13B
330
1F
100
AcDbEntity
  8
001
 62
     5
370
    30
100
AcDbLine
 10
1160.247408
 20
609.694952
 30
0.0
 11
1184.075508
 21
595.937852
 31
0.0
  0
LINE
  5
13C
330
1F
100
AcDbEntity
  8
001
 62
     5
370
    30
100
AcDbLine
 10
1238.653508
 20
644.335952
 30
0.0
 11
1214.700508
 21
630.506752
 31
0.0
  0
LINE
  5
13D
330
1F
100
AcDbEntity
  8
001
 62
     5
370
    30
100
AcDbLine
 10
1157.497408
 20
604.931852
 30
0.0
 11
1181.450408
 21
591.102552
 31
0.0
  0
LINE
  5
13E
330
1F
100
AcDbEntity
  8
001
 62
     5
370
    30
100
AcDbLine
 10
1256.527008
 20
620.014252
 30
0.0
 11
1228.821008
 21
604.018152
 31
0.0
  0
LINE
  5
13F
330
1F
100
AcDbEntity
  8
001
 62
     5
370
    30
100
AcDbLine
 10
1169.623908
 20
632.571552
 30
0.0
 11
1197.329908
 21
616.575552
 31
0.0
  0
LINE
  5
140
330
1F
100
AcDbEntity
  8
001
 62
     5
370
    30
100
AcDbLine
 10
1259.277008
 20
615.251052
 30
0.0
 11
1231.571008
 21
599.255052
 31
0.0
  0
LINE
  5
141
330
1F
100
AcDbEntity
  8
001
 62
     5
370
    30
100
AcDbLine
 10
1172.373908
 20
637.334752
 30
0.0
 11
1200.079908
 21
621.338652
 31
0.0
  0
ARC
  5
142
330
1F
100
AcDbEntity
  8
001
 62
     5
370
    30
100
AcDbCircle
 10
1216.200508
 20
628.197352
 30
0.0
 40
2.750000000000012
100
AcDbArc
 50
180.0
 51
300.0001
  0
ARC
  5
143
330
1F
100
AcDbEntity
  8
001
 62
     5
370
    30
100
AcDbCircle
 10
1182.700408
 20
593.556252
 30
0.0
 40
2.750000000000029
100
AcDbArc
 50
300.0001
 51
60.0
  0
ARC
  5
144
330
1F
100
AcDbEntity
  8
001
 62
     5
370
    30
100
AcDbCircle
 10
1240.045808
 20
641.964452
 30
0.0
 40
2.749999999999956
100
AcDbArc
 50
299.9998
 51
120.2898
  0
ARC
  5
145
330
1F
100
AcDbEntity
  8
001
 62
     5
370
    30
100
AcDbCircle
 10
1158.855108
 20
607.323352
 30
0.0
 40
2.750000000000039
100
AcDbArc
 50
60.0002
 51
240.2899
  0
ARC
  5
146
330
1F
100
AcDbEntity
  8
001
 62
     5
370
    30
100
AcDbCircle
 10
1215.950508
 20
628.341652
 30
0.0
 40
2.499999999999987
100
AcDbArc
 50
119.9993
 51
179.9986
  0
ARC
  5
147
330
1F
100
AcDbEntity
  8
001
 62
     5
370
    30
100
AcDbCircle
 10
1182.700508
 20
593.267652
 30
0.0
 40
2.50000000000002
100
AcDbArc
 50
239.9997
 51
299.9987
  0
LINE
  5
148
330
1F
100
AcDbEntity
  8
001
 62
     5
370
    30
100
AcDbLine
 10
1258.653508
 20
609.694952
 30
0.0
 11
1234.825508
 21
595.937852
 31
0.0
  0
LINE
  5
149
330
1F
100
AcDbEntity
  8
001
 62
     5
370
    30
100
AcDbLine
 10
1177.497408
 20
639.572852
 30
0.0
 11
1201.325408
 21
625.815752
 31
0.0
  0
LINE
  5
14A
330
1F
100
AcDbEntity
  8
001
 62
     5
370
    30
100
AcDbLine
 10
1261.403508
 20
604.931852
 30
0.0
 11
1237.450508
 21
591.102552
 31
0.0
  0
LINE
  5
14B
330
1F
100
AcDbEntity
  8
001
 62
     5
370
    30
100
AcDbLine
 10
1180.247408
 20
644.335952
 30
0.0
 11
1204.200508
 21
630.506752
 31
0.0
  0
ARC
  5
14C
330
1F
100
AcDbEntity
  8
001
 62
     5
370
    30
100
AcDbCircle
 10
1236.200508
 20
593.556252
 30
0.0
 40
2.74999999999998
100
AcDbArc
 50
119.9998
 51
239.999
  0
ARC
  5
14D
330
1F
100
AcDbEntity
  8
001
 62
     5
370
    30
100
AcDbCircle
 10
1202.700508
 20
628.197352
 30
0.0
 40
2.750000000000012
100
AcDbArc
 50
240.0
 51
359.9987
  0
ARC
  5
14E
330
1F
100
AcDbEntity
  8
001
 62
     5
370
    30
100
AcDbCircle
 10
1260.045808
 20
607.323352
 30
0.0
 40
2.750000000000009
100
AcDbArc
 50
299.7281
 51
119.9998
  0
ARC
  5
14F
330
1F
100
AcDbEntity
  8
001
 62
     5
370
    30
100
AcDbCircle
 10
1178.855208
 20
641.964452
 30
0.0
 40
2.750000000000036
100
AcDbArc
 50
59.7281
 51
239.9996
  0
ARC
  5
150
330
1F
100
AcDbEntity
  8
001
 62
     5
370
    30
100
AcDbCircle
 10
1236.200508
 20
593.267652
 30
0.0
 40
2.499899999999975
100
AcDbArc
 50
240.0009
 51
299.9997
  0
ARC
  5
151
330
1F
100
AcDbEntity
  8
001
 62
     5
370
    30
100
AcDbCircle
 10
1202.950408
 20
628.341652
 30
0.0
 40
2.500000000000028
100
AcDbArc
 50
0.0014
 51
59.9997
  0
LINE
  5
152
330
1F
100
AcDbEntity
  8
001
 62
     5
370
    30
100
AcDbLine
 10
1231.015808
 20
645.122452
 30
0.0
 11
1217.575508
 21
637.362752
 31
0.0
  0
LINE
  5
153
330
1F
100
AcDbEntity
  8
001
 62
     5
370
    30
100
AcDbLine
 10
1160.635108
 20
597.924152
 30
0.0
 11
1174.075508
 21
590.164352
 31
0.0
  0
LINE
  5
154
330
1F
100
AcDbEntity
  8
001
 62
     5
370
    30
100
AcDbLine
 10
1228.265808
 20
649.885652
 30
0.0
 11
1214.825508
 21
642.125852
 31
0.0
  0
LINE
  5
155
330
1F
100
AcDbEntity
  8
001
 62
     5
370
    30
100
AcDbLine
 10
1157.885208
 20
593.161052
 30
0.0
 11
1171.325508
 21
585.401252
 31
0.0
  0
ARC
  5
156
330
1F
100
AcDbEntity
  8
001
 62
     5
370
    30
100
AcDbCircle
 10
1216.200508
 20
639.744352
 30
0.0
 40
2.750000000000012
100
AcDbArc
 50
180.0
 51
300.0001
  0
ARC
  5
157
330
1F
100
AcDbEntity
  8
001
 62
     5
370
    30
100
AcDbCircle
 10
1172.700408
 20
587.782752
 30
0.0
 40
2.750000000000023
100
AcDbArc
 50
240.0002
 51
60.0002
  0
ARC
  5
158
330
1F
100
AcDbEntity
  8
001
 62
     5
370
    30
100
AcDbCircle
 10
1216.200508
 20
639.744352
 30
0.0
 40
2.75
100
AcDbArc
 50
120.0007
 51
180.0
  0
ARC
  5
159
330
1F
100
AcDbEntity
  8
001
 62
     5
370
    30
100
AcDbCircle
 10
1229.709908
 20
647.543952
 30
0.0
 40
2.750000000000039
100
AcDbArc
 50
300.0009
 51
123.6022
  0
ARC
  5
15A
330
1F
100
AcDbEntity
  8
001
 62
     5
370
    30
100
AcDbCircle
 10
1159.191108
 20
595.582452
 30
0.0
 40
2.75000000000002
100
AcDbArc
 50
60.0011
 51
243.6024
  0
LINE
  5
15B
330
1F
100
AcDbEntity
  8
001
 62
     5
370
    30
100
AcDbLine
 10
1258.265808
 20
597.924152
 30
0.0
 11
1244.825508
 21
590.164352
 31
0.0
  0
LINE
  5
15C
330
1F
100
AcDbEntity
  8
001
 62
     5
370
    30
100
AcDbLine
 10
1187.885108
 20
645.122452
 30
0.0
 11
1201.325408
 21
637.362752
 31
0.0
  0
LINE
  5
15D
330
1F
100
AcDbEntity
  8
001
 62
     5
370
    30
100
AcDbLine
 10
1261.015808
 20
593.161052
 30
0.0
 11
1247.575508
 21
585.401252
 31
0.0
  0
LINE
  5
15E
330
1F
100
AcDbEntity
  8
001
 62
     5
370
    30
100
AcDbLine
 10
1190.635108
 20
649.885652
 30
0.0
 11
1204.075408
 21
642.125852
 31
0.0
  0
ARC
  5
15F
330
1F
100
AcDbEntity
  8
001
 62
     5
370
    30
100
AcDbCircle
 10
1246.200508
 20
587.782752
 30
0.0
 40
2.74999999999998
100
AcDbArc
 50
119.9998
 51
239.999
  0
ARC
  5
160
330
1F
100
AcDbEntity
  8
001
 62
     5
370
    30
100
AcDbCircle
 10
1202.700508
 20
639.744352
 30
0.0
 40
2.750000000000012
100
AcDbArc
 50
240.0002
 51
359.9987
  0
ARC
  5
161
330
1F
100
AcDbEntity
  8
001
 62
     5
370
    30
100
AcDbCircle
 10
1246.200508
 20
587.782752
 30
0.0
 40
2.749999999999994
100
AcDbArc
 50
240.0002
 51
300.0003
  0
ARC
  5
162
330
1F
100
AcDbEntity
  8
001
 62
     5
370
    30
100
AcDbCircle
 10
1202.700508
 20
639.744352
 30
0.0
 40
2.750000000000029
100
AcDbArc
 50
0.0
 51
60.0
  0
ARC
  5
163
330
1F
100
AcDbEntity
  8
001
 62
     5
370
    30
100
AcDbCircle
 10
1259.709908
 20
595.582452
 30
0.0
 40
2.750000000000018
100
AcDbArc
 50
295.8917
 51
119.9999
  0
ARC
  5
164
330
1F
100
AcDbEntity
  8
001
 62
     5
370
    30
100
AcDbCircle
 10
1189.191008
 20
647.543952
 30
0.0
 40
2.750000000000012
100
AcDbArc
 50
55.8917
 51
239.9999
  0
CIRCLE
  5
165
330
1F
100
AcDbEntity
  8
001
 62
     5
370
    30
100
AcDbCircle
 10
1170.479308
 20
578.706152
 30
0.0
 40
3.0
  0
CIRCLE
  5
166
330
1F
100
AcDbEntity
  8
001
 62
     5
370
    30
100
AcDbCircle
 10
1248.421608
 20
578.706152
 30
0.0
 40
3.0
  0
LINE
  5
167
330
1F
100
AcDbEntity
  8
001
 62
     5
370
    30
100
AcDbLine
 10
1233.046608
 20
533.206152
 30
0.0
 11
1185.619508
 21
533.206152
 31
0.0
  0
LINE
  5
168
330
1F
100
AcDbEntity
  8
001
 62
     5
370
    30
100
AcDbLine
 10
1238.599808
 20
532.206152
 30
0.0
 11
1180.318208
 21
532.206152
 31
0.0
  0
LINE
  5
169
330
1F
100
AcDbEntity
  8
001
 62
     5
370
    30
100
AcDbLine
 10
1171.255508
 20
534.108652
 30
0.0
 11
1172.702008
 21
535.832552
 31
0.0
  0
LINE
  5
16A
330
1F
100
AcDbEntity
  8
001
 62
     5
370
    30
100
AcDbLine
 10
1172.955508
 20
532.765452
 30
0.0
 11
1174.640508
 21
534.773452
 31
0.0
  0
LINE
  5
16B
330
1F
100
AcDbEntity
  8
001
 62
     5
370
    30
100
AcDbLine
 10
1279.450508
 20
532.506152
 30
0.0
 11
1250.586608
 21
532.506152
 31
0.0
  0
LINE
  5
16C
330
1F
100
AcDbEntity
  8
001
 62
     5
370
    30
100
AcDbLine
 10
1246.076208
 20
535.825352
 30
0.0
 11
1247.828908
 21
533.736552
 31
0.0
  0
LINE
  5
16D
330
1F
100
AcDbEntity
  8
001
 62
     5
370
    30
100
AcDbLine
 10
1244.109108
 20
534.747452
 30
0.0
 11
1245.916908
 21
532.593052
 31
0.0
  0
LINE
  5
16E
330
1F
100
AcDbEntity
  8
001
 62
     5
370
    30
100
AcDbLine
 10
1213.765508
 20
679.586152
 30
0.0
 11
1213.265508
 21
680.086152
 31
0.0
  0
LINE
  5
16F
330
1F
100
AcDbEntity
  8
001
 62
     5
370
    30
100
AcDbLine
 10
1205.635508
 20
680.086152
 30
0.0
 11
1205.135508
 21
679.586152
 31
0.0
  0
LINE
  5
170
330
1F
100
AcDbEntity
  8
001
 62
     5
370
    30
100
AcDbLine
 10
1211.838708
 20
679.586152
 30
0.0
 11
1212.338708
 21
680.086152
 31
0.0
  0
LINE
  5
171
330
1F
100
AcDbEntity
  8
001
 62
     5
370
    30
100
AcDbLine
 10
1207.062208
 20
676.206152
 30
0.0
 11
1207.062208
 21
679.586152
 31
0.0
  0
LINE
  5
172
330
1F
100
AcDbEntity
  8
001
 62
     5
370
    30
100
AcDbLine
 10
1211.838708
 20
679.586152
 30
0.0
 11
1211.338708
 21
680.086152
 31
0.0
  0
LINE
  5
173
330
1F
100
AcDbEntity
  8
001
 62
     5
370
    30
100
AcDbLine
 10
1207.062208
 20
679.586152
 30
0.0
 11
1206.562208
 21
680.086152
 31
0.0
  0
LINE
  5
174
330
1F
100
AcDbEntity
  8
001
 62
     5
370
    30
100
AcDbLine
 10
1207.062208
 20
679.586152
 30
0.0
 11
1207.562208
 21
680.086152
 31
0.0
  0
LINE
  5
175
330
1F
100
AcDbEntity
  8
001
 62
     5
370
    30
100
AcDbLine
 10
1143.304408
 20
565.774452
 30
0.0
 11
1140.377208
 21
564.084452
 31
0.0
  0
LINE
  5
176
330
1F
100
AcDbEntity
  8
001
 62
     5
370
    30
100
AcDbLine
 10
1273.208208
 20
561.637852
 30
0.0
 11
1276.135408
 21
559.947852
 31
0.0
  0
LINE
  5
177
330
1F
100
AcDbEntity
  8
001
 62
     5
370
    30
100
AcDbLine
 10
1143.045808
 20
558.462252
 30
0.0
 11
1139.230808
 21
565.070052
 31
0.0
  0
LINE
  5
178
330
1F
100
AcDbEntity
  8
001
 62
     5
370
    30
100
AcDbLine
 10
1279.670008
 20
565.069952
 30
0.0
 11
1275.855008
 21
558.462252
 31
0.0
  0
LINE
  5
179
330
1F
100
AcDbEntity
  8
001
 62
     5
370
    30
100
AcDbLine
 10
1146.656008
 20
559.969252
 30
0.0
 11
1143.728808
 21
558.279252
 31
0.0
  0
LINE
  5
17A
330
1F
100
AcDbEntity
  8
001
 62
     5
370
    30
100
AcDbLine
 10
1276.559808
 20
567.442952
 30
0.0
 11
1279.487008
 21
565.752952
 31
0.0
  0
LINE
  5
17B
330
1F
100
AcDbEntity
  8
001
 62
     5
370
    30
100
AcDbLine
 10
1142.341008
 20
567.443052
 30
0.0
 11
1139.413808
 21
565.753052
 31
0.0
  0
LINE
  5
17C
330
1F
100
AcDbEntity
  8
001
 62
     5
370
    30
100
AcDbLine
 10
1272.244908
 20
559.969252
 30
0.0
 11
1275.172008
 21
558.279252
 31
0.0
  0
LINE
  5
17D
330
1F
100
AcDbEntity
  8
001
 62
     5
370
    30
100
AcDbLine
 10
1139.413808
 20
565.753052
 30
0.0
 11
1139.230808
 21
565.070052
 31
0.0
  0
LINE
  5
17E
330
1F
100
AcDbEntity
  8
001
 62
     5
370
    30
100
AcDbLine
 10
1275.172008
 20
558.279252
 30
0.0
 11
1275.855008
 21
558.462252
 31
0.0
  0
LINE
  5
17F
330
1F
100
AcDbEntity
  8
001
 62
     5
370
    30
100
AcDbLine
 10
1143.045808
 20
558.462252
 30
0.0
 11
1143.728808
 21
558.279252
 31
0.0
  0
LINE
  5
180
330
1F
100
AcDbEntity
  8
001
 62
     5
370
    30
100
AcDbLine
 10
1279.670008
 20
565.069952
 30
0.0
 11
1279.487008
 21
565.752952
 31
0.0
  0
LINE
  5
181
330
1F
100
AcDbEntity
  8
001
 62
     5
370
    30
100
AcDbLine
 10
1140.377208
 20
564.084452
 30
0.0
 11
1139.694208
 21
564.267552
 31
0.0
  0
LINE
  5
182
330
1F
100
AcDbEntity
  8
001
 62
     5
370
    30
100
AcDbLine
 10
1276.135408
 20
559.947852
 30
0.0
 11
1276.318408
 21
559.264752
 31
0.0
  0
LINE
  5
183
330
1F
100
AcDbEntity
  8
001
 62
     5
370
    30
100
AcDbLine
 10
1145.692708
 20
561.637852
 30
0.0
 11
1142.765508
 21
559.947852
 31
0.0
  0
LINE
  5
184
330
1F
100
AcDbEntity
  8
001
 62
     5
370
    30
100
AcDbLine
 10
1275.596508
 20
565.774452
 30
0.0
 11
1278.523608
 21
564.084452
 31
0.0
  0
LINE
  5
185
330
1F
100
AcDbEntity
  8
001
 62
     5
370
    30
100
AcDbLine
 10
1140.377208
 20
564.084452
 30
0.0
 11
1140.194208
 21
563.401452
 31
0.0
  0
LINE
  5
186
330
1F
100
AcDbEntity
  8
001
 62
     5
370
    30
100
AcDbLine
 10
1276.135408
 20
559.947852
 30
0.0
 11
1276.818408
 21
560.130752
 31
0.0
  0
LINE
  5
187
330
1F
100
AcDbEntity
  8
001
 62
     5
370
    30
100
AcDbLine
 10
1142.765508
 20
559.947852
 30
0.0
 11
1142.582508
 21
559.264852
 31
0.0
  0
LINE
  5
188
330
1F
100
AcDbEntity
  8
001
 62
     5
370
    30
100
AcDbLine
 10
1278.523608
 20
564.084452
 30
0.0
 11
1279.206708
 21
564.267452
 31
0.0
  0
LINE
  5
189
330
1F
100
AcDbEntity
  8
001
 62
     5
370
    30
100
AcDbLine
 10
1142.765508
 20
559.947852
 30
0.0
 11
1142.082508
 21
560.130852
 31
0.0
  0
LINE
  5
18A
330
1F
100
AcDbEntity
  8
001
 62
     5
370
    30
100
AcDbLine
 10
1278.523608
 20
564.084452
 30
0.0
 11
1278.706708
 21
563.401452
 31
0.0
  0
LINE
  5
18B
330
1F
100
AcDbEntity
  8
001
 62
     5
370
    30
100
AcDbLine
 10
1139.714208
 20
532.506152
 30
0.0
 11
1168.964808
 21
532.506152
 31
0.0
  0
LINE
  5
18C
330
1F
100
AcDbEntity
  8
001
 62
     5
370
    30
100
AcDbLine
 10
1139.450508
 20
532.506152
 30
0.0
 11
1139.450508
 21
530.206152
 31
0.0
  0
LINE
  5
18D
330
1F
100
AcDbEntity
  8
001
 62
     5
370
    30
100
AcDbLine
 10
1279.450508
 20
532.506152
 30
0.0
 11
1279.450508
 21
530.206152
 31
0.0
  0
LINE
  5
18E
330
1F
100
AcDbEntity
  8
001
 62
     5
370
    30
100
AcDbLine
 10
1169.450508
 20
530.834252
 30
0.0
 11
1169.450508
 21
530.206152
 31
0.0
  0
LINE
  5
18F
330
1F
100
AcDbEntity
  8
001
 62
     5
370
    30
100
AcDbLine
 10
1264.652208
 20
550.142052
 30
0.0
 11
1279.450508
 21
532.506152
 31
0.0
  0
LINE
  5
190
330
1F
100
AcDbEntity
  8
001
 62
     5
370
    30
100
AcDbLine
 10
1154.303308
 20
550.207052
 30
0.0
 11
1139.450508
 21
532.506152
 31
0.0
  0
LINE
  5
191
330
1F
100
AcDbEntity
  8
001
 62
     5
370
    30
100
AcDbLine
 10
1266.257508
 20
548.228952
 30
0.0
 11
1267.023508
 21
548.871752
 31
0.0
  0
LINE
  5
192
330
1F
100
AcDbEntity
  8
001
 62
     5
370
    30
100
AcDbLine
 10
1272.685308
 20
540.568552
 30
0.0
 11
1273.451408
 21
541.211352
 31
0.0
  0
LINE
  5
193
330
1F
100
AcDbEntity
  8
001
 62
     5
370
    30
100
AcDbLine
 10
1270.678708
 20
546.064552
 30
0.0
 11
1270.968708
 21
546.307852
 31
0.0
  0
LINE
  5
194
330
1F
100
AcDbEntity
  8
001
 62
     5
370
    30
100
AcDbLine
 10
1271.321508
 20
545.298452
 30
0.0
 11
1271.611508
 21
545.541752
 31
0.0
  0
LINE
  5
195
330
1F
100
AcDbEntity
  8
001
 62
     5
370
    30
100
AcDbLine
 10
1267.023508
 20
548.871752
 30
0.0
 11
1273.451408
 21
541.211352
 31
0.0
  0
LINE
  5
196
330
1F
100
AcDbEntity
  8
001
 62
     5
370
    30
100
AcDbLine
 10
1270.340308
 20
548.338052
 30
0.0
 11
1270.682008
 21
548.624652
 31
0.0
  0
ARC
  5
197
330
1F
100
AcDbEntity
  8
001
 62
     5
370
    30
100
AcDbCircle
 10
1264.875108
 20
540.542152
 30
0.0
 40
10.00000000000004
100
AcDbArc
 50
25.5218
 51
54.477
  0
ARC
  5
198
330
1F
100
AcDbEntity
  8
001
 62
     5
370
    30
100
AcDbCircle
 10
1269.523408
 20
547.053152
 30
0.0
 40
1.999999999999986
100
AcDbArc
 50
54.4777
 51
151.6225
  0
ARC
  5
199
330
1F
100
AcDbEntity
  8
001
 62
     5
370
    30
100
AcDbCircle
 10
1272.094508
 20
543.988952
 30
0.0
 40
1.999999999999991
100
AcDbArc
 50
288.5489
 51
25.5215
  0
LINE
  5
19A
330
1F
100
AcDbEntity
  8
001
 62
     5
370
    30
100
AcDbLine
 10
1270.682108
 20
546.067352
 30
0.0
 11
1271.324908
 21
545.301252
 31
0.0
  0
ARC
  5
19B
330
1F
100
AcDbEntity
  8
001
 62
     5
370
    30
100
AcDbCircle
 10
1264.492108
 20
540.220752
 30
0.0
 40
10.00000000000002
100
AcDbArc
 50
49.5929
 51
54.4769
  0
ARC
  5
19C
330
1F
100
AcDbEntity
  8
001
 62
     5
370
    30
100
AcDbCircle
 10
1264.492108
 20
540.220752
 30
0.0
 40
10.00000000000001
100
AcDbArc
 50
25.5217
 51
30.4051
  0
ARC
  5
19D
330
1F
100
AcDbEntity
  8
001
 62
     5
370
    30
100
AcDbCircle
 10
1270.326008
 20
547.073852
 30
0.0
 40
0.9999999999999722
100
AcDbArc
 50
310.0008
 51
49.5931
  0
ARC
  5
19E
330
1F
100
AcDbEntity
  8
001
 62
     5
370
    30
100
AcDbCircle
 10
1272.254308
 20
544.775752
 30
0.0
 40
0.9999999999999923
100
AcDbArc
 50
30.4042
 51
129.9986
  0
LINE
  5
19F
330
1F
100
AcDbEntity
  8
001
 62
     5
370
    30
100
AcDbLine
 10
1273.553708
 20
544.478352
 30
0.0
 11
1273.954808
 21
544.814852
 31
0.0
  0
ARC
  5
1A0
330
1F
100
AcDbEntity
  8
001
 62
     5
370
    30
100
AcDbCircle
 10
1250.586708
 20
536.206252
 30
0.0
 40
3.700099999999987
100
AcDbArc
 50
218.8263
 51
274.6091
  0
ARC
  5
1A1
330
1F
100
AcDbEntity
  8
001
 62
     5
370
    30
100
AcDbCircle
 10
1168.371908
 20
535.806352
 30
0.0
 40
3.300200000000013
100
AcDbArc
 50
279.083
 51
329.9977
  0
ARC
  5
1A2
330
1F
100
AcDbEntity
  8
001
 62
     5
370
    30
100
AcDbCircle
 10
1168.429808
 20
536.706052
 30
0.0
 40
5.999899999999994
100
AcDbArc
 50
279.5669
 51
319.6225
  0
ARC
  5
1A3
330
1F
100
AcDbEntity
  8
001
 62
     5
370
    30
100
AcDbCircle
 10
1250.297908
 20
536.705952
 30
0.0
 40
5.999800000000006
100
AcDbArc
 50
220.7184
 51
261.7435
  0
LINE
  5
1A4
330
1F
100
AcDbEntity
  8
001
  6
CENTER
 62
     5
370
     9
100
AcDbLine
 10
1126.579908
 20
601.206152
 30
0.0
 11
1297.184478
 21
601.206152
 31
0.0
  0
LINE
  5
1A5
330
1F
100
AcDbEntity
  8
001
  6
CENTER
 62
     5
370
     9
100
AcDbLine
 10
1281.590408
 20
620.536052
 30
0.0
 11
1261.800308
 21
615.233252
 31
0.0
  0
LINE
  5
1A6
330
1F
100
AcDbEntity
  8
001
  6
CENTER
 62
     5
370
     9
100
AcDbLine
 10
1265.450508
 20
541.586252
 30
0.0
 11
1265.450508
 21
525.995052
 31
0.0
  0
LINE
  5
1A7
330
1F
100
AcDbEntity
  8
001
  6
CENTER
 62
     5
370
     9
100
AcDbLine
 10
1271.804297
 20
565.206081
 30
0.0
 11
1279.994419
 21
560.47761
 31
0.0
  0
LINE
  5
1A8
330
1F
100
AcDbEntity
  8
001
  6
CENTER
 62
     5
370
     9
100
AcDbLine
 10
1147.096695
 20
565.206125
 30
0.0
 11
1138.770178
 21
560.398908
 31
0.0
  0
LINE
  5
1A9
330
1F
100
AcDbEntity
  8
001
  6
CENTER
 62
     5
370
     9
100
AcDbLine
 10
1265.978608
 20
541.468052
 30
0.0
 11
1274.729908
 21
548.811152
 31
0.0
  0
LINE
  5
1AA
330
1F
100
AcDbEntity
  8
001
 62
     5
370
    30
100
AcDbLine
 10
1010.450508
 20
735.506152
 30
0.0
 11
836.450508
 21
735.506152
 31
0.0
  0
LINE
  5
1AB
330
1F
100
AcDbEntity
  8
001
 62
     5
370
    30
100
AcDbLine
 10
838.450508
 20
745.506152
 30
0.0
 11
1008.450508
 21
745.506152
 31
0.0
  0
LINE
  5
1AC
330
1F
100
AcDbEntity
  8
001
 62
     5
370
    30
100
AcDbLine
 10
836.450508
 20
730.706152
 30
0.0
 11
836.450508
 21
743.506152
 31
0.0
  0
LINE
  5
1AD
330
1F
100
AcDbEntity
  8
001
 62
     5
370
    30
100
AcDbLine
 10
1010.450508
 20
730.706152
 30
0.0
 11
1010.450508
 21
743.506152
 31
0.0
  0
LINE
  5
1AE
330
1F
100
AcDbEntity
  8
001
 62
     5
370
    30
100
AcDbLine
 10
1001.305715
 20
726.742509
 30
0.0
 11
997.632296
 21
524.704499
 31
0.0
  0
LINE
  5
1AF
330
1F
100
AcDbEntity
  8
001
 62
     5
370
    30
100
AcDbLine
 10
845.595302
 20
726.742509
 30
0.0
 11
849.26872
 21
524.704499
 31
0.0
  0
LINE
  5
1B0
330
1F
100
AcDbEntity
  8
001
 62
     5
370
    30
100
AcDbLine
 10
1043.450508
 20
510.669569
 30
0.0
 11
1043.450508
 21
512.706152
 31
0.0
  0
ARC
  5
1B1
330
1F
100
AcDbEntity
  8
001
 62
     5
370
    30
100
AcDbCircle
 10
1041.450508
 20
512.706152
 30
0.0
 40
2.0
100
AcDbArc
 50
0.0
 51
90.0
  0
ARC
  5
1B2
330
1F
100
AcDbEntity
  8
001
 62
     5
370
    30
100
AcDbCircle
 10
805.450508
 20
512.706152
 30
0.0
 40
2.0
100
AcDbArc
 50
90.0
 51
105.687527
  0
LINE
  5
1B3
330
1F
100
AcDbEntity
  8
001
 62
     5
370
    30
100
AcDbLine
 10
986.487091
 20
510.669569
 30
0.0
 11
982.450508
 21
514.706152
 31
0.0
  0
LINE
  5
1B4
330
1F
100
AcDbEntity
  8
001
 62
     5
370
    30
100
AcDbLine
 10
860.413926
 20
510.669569
 30
0.0
 11
864.450508
 21
514.706152
 31
0.0
  0
LINE
  5
1B5
330
1F
100
AcDbEntity
  8
001
 62
     5
370
    30
100
AcDbLine
 10
1008.450508
 20
514.706152
 30
0.0
 11
997.646937
 21
525.509723
 31
0.0
  0
LINE
  5
1B6
330
1F
100
AcDbEntity
  8
001
 62
     5
370
    30
100
AcDbLine
 10
838.450508
 20
514.706152
 30
0.0
 11
849.25408
 21
525.509723
 31
0.0
  0
LINE
  5
1B7
330
1F
100
AcDbEntity
  8
001
 62
     5
370
    30
100
AcDbLine
 10
1008.450508
 20
514.706152
 30
0.0
 11
1041.450508
 21
514.706152
 31
0.0
  0
LINE
  5
1B8
330
1F
100
AcDbEntity
  8
001
 62
     5
370
    30
100
AcDbLine
 10
805.450508
 20
514.706152
 30
0.0
 11
838.450508
 21
514.706152
 31
0.0
  0
LINE
  5
1B9
330
1F
100
AcDbEntity
  8
001
 62
     5
370
    30
100
AcDbLine
 10
859.637377
 20
514.706152
 30
0.0
 11
987.26364
 21
514.706152
 31
0.0
  0
LINE
  5
1BA
330
1F
100
AcDbEntity
  8
001
 62
     5
370
    30
100
AcDbLine
 10
849.26869
 20
524.706152
 30
0.0
 11
997.632326
 21
524.706152
 31
0.0
  0
LINE
  5
1BB
330
1F
100
AcDbEntity
  8
001
 62
     5
370
    30
100
AcDbLine
 10
997.632296
 20
524.704499
 30
0.0
 11
987.26364
 21
514.706152
 31
0.0
  0
LINE
  5
1BC
330
1F
100
AcDbEntity
  8
001
 62
     5
370
    30
100
AcDbLine
 10
849.26872
 20
524.704499
 30
0.0
 11
859.637377
 21
514.706152
 31
0.0
  0
LINE
  5
1BD
330
1F
100
AcDbEntity
  8
001
  6
CENTER
 62
     5
370
     9
100
AcDbLine
 10
923.450508
 20
749.506152
 30
0.0
 11
923.450508
 21
498.706152
 31
0.0
  0
LINE
  5
1BE
330
1F
100
AcDbEntity
  8
001
  6
CENTER
 62
     5
370
     9
100
AcDbLine
 10
893.450508
 20
839.868665
 30
0.0
 11
893.450508
 21
745.506152
 31
0.0
  0
LINE
  5
1BF
330
1F
100
AcDbEntity
  8
001
  6
CENTER
 62
     5
370
     9
100
AcDbLine
 10
818.450508
 20
523.206152
 30
0.0
 11
818.450508
 21
498.706152
 31
0.0
  0
LINE
  5
1C0
330
1F
100
AcDbEntity
  8
001
 62
     5
370
    30
100
AcDbLine
 10
824.079673
 20
523.206152
 30
0.0
 11
825.956062
 21
522.122818
 31
0.0
  0
LINE
  5
1C1
330
1F
100
AcDbEntity
  8
001
 62
     5
370
    30
100
AcDbLine
 10
812.821343
 20
523.206152
 30
0.0
 11
810.944955
 21
522.122818
 31
0.0
  0
LINE
  5
1C2
330
1F
100
AcDbEntity
  8
001
 62
     5
370
    30
100
AcDbLine
 10
825.956062
 20
522.122818
 30
0.0
 11
825.956062
 21
516.706152
 31
0.0
  0
LINE
  5
1C3
330
1F
100
AcDbEntity
  8
001
 62
     5
370
    30
100
AcDbLine
 10
810.944955
 20
522.122818
 30
0.0
 11
810.944955
 21
516.706152
 31
0.0
  0
ARC
  5
1C4
330
1F
100
AcDbEntity
  8
001
 62
     5
370
    30
100
AcDbCircle
 10
824.079673
 20
521.039485
 30
0.0
 40
2.16666666651644
100
AcDbArc
 50
90.0
 51
150.0
  0
ARC
  5
1C5
330
1F
100
AcDbEntity
  8
001
 62
     5
370
    30
100
AcDbCircle
 10
812.821343
 20
521.039485
 30
0.0
 40
2.16666666651644
100
AcDbArc
 50
30.0
 51
90.0
  0
LINE
  5
1C6
330
1F
100
AcDbEntity
  8
001
 62
     5
370
    30
100
AcDbLine
 10
822.203285
 20
522.122818
 30
0.0
 11
822.203285
 21
516.706152
 31
0.0
  0
ARC
  5
1C7
330
1F
100
AcDbEntity
  8
001
 62
     5
370
    30
100
AcDbCircle
 10
818.450508
 20
516.164485
 30
0.0
 40
7.041666666371407
100
AcDbArc
 50
57.795772
 51
122.204228
  0
LINE
  5
1C8
330
1F
100
AcDbEntity
  8
001
 62
     5
370
    30
100
AcDbLine
 10
814.697731
 20
522.122818
 30
0.0
 11
814.697731
 21
516.706152
 31
0.0
  0
LINE
  5
1C9
330
1F
100
AcDbEntity
  8
001
 62
     5
370
    30
100
AcDbLine
 10
824.079673
 20
523.206152
 30
0.0
 11
812.821343
 21
523.206152
 31
0.0
  0
CIRCLE
  5
1CA
330
1F
100
AcDbEntity
  8
001
 62
     5
370
    30
100
AcDbCircle
 10
818.450508
 20
1153.490685
 30
0.0
 40
6.3
  0
LINE
  5
1CB
330
1F
100
AcDbEntity
  8
001
 62
     5
370
    30
100
AcDbLine
 10
818.450508
 20
1159.790685
 30
0.0
 11
814.813202
 21
1159.790685
 31
0.0
  0
LINE
  5
1CC
330
1F
100
AcDbEntity
  8
001
 62
     5
370
    30
100
AcDbLine
 10
814.813202
 20
1159.790685
 30
0.0
 11
811.175895
 21
1153.490685
 31
0.0
  0
LINE
  5
1CD
330
1F
100
AcDbEntity
  8
001
 62
     5
370
    30
100
AcDbLine
 10
822.087815
 20
1159.790685
 30
0.0
 11
825.725122
 21
1153.490685
 31
0.0
  0
LINE
  5
1CE
330
1F
100
AcDbEntity
  8
001
 62
     5
370
    30
100
AcDbLine
 10
818.450508
 20
1159.790685
 30
0.0
 11
822.087815
 21
1159.790685
 31
0.0
  0
LINE
  5
1CF
330
1F
100
AcDbEntity
  8
001
 62
     5
370
    30
100
AcDbLine
 10
818.450508
 20
1147.190685
 30
0.0
 11
814.813202
 21
1147.190685
 31
0.0
  0
LINE
  5
1D0
330
1F
100
AcDbEntity
  8
001
 62
     5
370
    30
100
AcDbLine
 10
814.813202
 20
1147.190685
 30
0.0
 11
811.175895
 21
1153.490685
 31
0.0
  0
LINE
  5
1D1
330
1F
100
AcDbEntity
  8
001
 62
     5
370
    30
100
AcDbLine
 10
822.087815
 20
1147.190685
 30
0.0
 11
825.725122
 21
1153.490685
 31
0.0
  0
LINE
  5
1D2
330
1F
100
AcDbEntity
  8
001
 62
     5
370
    30
100
AcDbLine
 10
818.450508
 20
1147.190685
 30
0.0
 11
822.087815
 21
1147.190685
 31
0.0
  0
LINE
  5
1D3
330
1F
100
AcDbEntity
  8
001
 62
     5
370
    30
100
AcDbLine
 10
1137.950508
 20
530.206152
 30
0.0
 11
1169.450508
 21
530.206152
 31
0.0
  0
LINE
  5
1D4
330
1F
100
AcDbEntity
  8
001
 62
     5
370
    30
100
AcDbLine
 10
1137.950508
 20
527.206152
 30
0.0
 11
1137.950508
 21
530.206152
 31
0.0
  0
ARC
  5
1D5
330
1F
100
AcDbEntity
  8
001
 62
     5
370
    30
100
AcDbCircle
 10
1167.950508
 20
525.206152
 30
0.0
 40
2.0
100
AcDbArc
 50
0.0
 51
90.0
  0
ARC
  5
1D6
330
1F
100
AcDbEntity
  8
001
 62
     5
370
    30
100
AcDbCircle
 10
1167.950508
 20
525.206152
 30
0.0
 40
5.0
100
AcDbArc
 50
0.0
 51
90.0
  0
LINE
  5
1D7
330
1F
100
AcDbEntity
  8
001
  6
CENTER
 62
     5
370
     9
100
AcDbLine
 10
1153.450508
 20
541.586252
 30
0.0
 11
1153.450508
 21
525.995052
 31
0.0
  0
LINE
  5
1D8
330
1F
100
AcDbEntity
  8
001
 62
     5
370
    30
100
AcDbLine
 10
1249.450508
 20
530.834252
 30
0.0
 11
1249.450508
 21
530.206152
 31
0.0
  0
LINE
  5
1D9
330
1F
100
AcDbEntity
  8
001
 62
     5
370
    30
100
AcDbLine
 10
1280.950508
 20
530.206152
 30
0.0
 11
1249.450508
 21
530.206152
 31
0.0
  0
LINE
  5
1DA
330
1F
100
AcDbEntity
  8
001
 62
     5
370
    30
100
AcDbLine
 10
1280.950508
 20
527.206152
 30
0.0
 11
1280.950508
 21
530.206152
 31
0.0
  0
LINE
  5
1DB
330
1F
100
AcDbEntity
  8
001
 62
     5
370
    30
100
AcDbLine
 10
1250.950508
 20
527.206152
 30
0.0
 11
1280.950508
 21
527.206152
 31
0.0
  0
ARC
  5
1DC
330
1F
100
AcDbEntity
  8
001
 62
     5
370
    30
100
AcDbCircle
 10
1250.950508
 20
525.206152
 30
0.0
 40
2.0
100
AcDbArc
 50
90.0
 51
180.0
  0
ARC
  5
1DD
330
1F
100
AcDbEntity
  8
001
 62
     5
370
    30
100
AcDbCircle
 10
1250.950508
 20
525.206152
 30
0.0
 40
5.0
100
AcDbArc
 50
90.0
 51
180.0
  0
LINE
  5
1DE
330
1F
100
AcDbEntity
  8
001
 62
     5
370
    30
100
AcDbLine
 10
1245.950508
 20
503.706152
 30
0.0
 11
1245.950508
 21
525.206152
 31
0.0
  0
LINE
  5
1DF
330
1F
100
AcDbEntity
  8
001
 62
     5
370
    30
100
AcDbLine
 10
1248.950508
 20
503.706152
 30
0.0
 11
1248.950508
 21
525.206152
 31
0.0
  0
LINE
  5
1E0
330
1F
100
AcDbEntity
  8
001
 62
     5
370
    30
100
AcDbLine
 10
1280.950508
 20
501.706152
 30
0.0
 11
1280.950508
 21
498.706152
 31
0.0
  0
LINE
  5
1E1
330
1F
100
AcDbEntity
  8
001
 62
     5
370
    30
100
AcDbLine
 10
1250.950508
 20
501.706152
 30
0.0
 11
1280.950508
 21
501.706152
 31
0.0
  0
LINE
  5
1E2
330
1F
100
AcDbEntity
  8
001
  6
CENTER
 62
     5
370
     9
100
AcDbLine
 10
1209.450508
 20
498.706152
 30
0.0
 11
1209.450508
 21
691.595652
 31
0.0
  0
ARC
  5
1E3
330
1F
100
AcDbEntity
  8
001
 62
     5
370
    30
100
AcDbCircle
 10
985.450508
 20
749.506152
 30
0.0
 40
4.0
100
AcDbArc
 50
180.0
 51
270.0
  0
ARC
  5
1E4
330
1F
100
AcDbEntity
  8
001
 62
     5
370
    30
100
AcDbCircle
 10
941.450508
 20
749.506152
 30
0.0
 40
4.0
100
AcDbArc
 50
270.0
 51
0.0
  0
LINE
  5
1E5
330
1F
100
AcDbEntity
  8
001
 62
     5
370
    30
100
AcDbLine
 10
981.450508
 20
749.506152
 30
0.0
 11
945.450508
 21
749.506152
 31
0.0
  0
ARC
  5
1E6
330
1F
100
AcDbEntity
  8
001
 62
     5
370
    30
100
AcDbCircle
 10
1008.450508
 20
743.506152
 30
0.0
 40
2.0
100
AcDbArc
 50
0.0
 51
90.0
  0
LINE
  5
1E7
330
1F
100
AcDbEntity
  8
001
  6
HIDDEN
 62
     5
370
     9
100
AcDbLine
 10
1010.450508
 20
743.506152
 30
0.0
 11
1010.450508
 21
745.506152
 31
0.0
  0
LINE
  5
1E8
330
1F
100
AcDbEntity
  8
001
  6
HIDDEN
 62
     5
370
     9
100
AcDbLine
 10
1008.450508
 20
745.506152
 30
0.0
 11
1010.450508
 21
745.506152
 31
0.0
  0
ARC
  5
1E9
330
1F
100
AcDbEntity
  8
001
 62
     5
370
    30
100
AcDbCircle
 10
838.450508
 20
743.506152
 30
0.0
 40
2.0
100
AcDbArc
 50
90.0
 51
180.0
  0
LINE
  5
1EA
330
1F
100
AcDbEntity
  8
001
  6
HIDDEN
 62
     5
370
     9
100
AcDbLine
 10
838.450508
 20
745.506152
 30
0.0
 11
836.450508
 21
745.506152
 31
0.0
  0
LINE
  5
1EB
330
1F
100
AcDbEntity
  8
001
  6
HIDDEN
 62
     5
370
     9
100
AcDbLine
 10
836.450508
 20
743.506152
 30
0.0
 11
836.450508
 21
745.506152
 31
0.0
  0
LINE
  5
1EC
330
1F
100
AcDbEntity
  8
001
 62
     5
370
    30
100
AcDbLine
 10
838.450508
 20
728.706152
 30
0.0
 11
1008.450508
 21
728.706152
 31
0.0
  0
ARC
  5
1ED
330
1F
100
AcDbEntity
  8
001
 62
     5
370
    30
100
AcDbCircle
 10
1008.450508
 20
730.706152
 30
0.0
 40
2.0
100
AcDbArc
 50
270.0
 51
0.0
  0
ARC
  5
1EE
330
1F
100
AcDbEntity
  8
001
 62
     5
370
    30
100
AcDbCircle
 10
838.450508
 20
730.706152
 30
0.0
 40
2.0
100
AcDbArc
 50
180.0
 51
270.0
  0
LINE
  5
1EF
330
1F
100
AcDbEntity
  8
001
 62
     5
370
    30
100
AcDbLine
 10
1010.450508
 20
734.706152
 30
0.0
 11
836.450508
 21
734.706152
 31
0.0
  0
ARC
  5
1F0
330
1F
100
AcDbEntity
  8
001
 62
     5
370
    30
100
AcDbCircle
 10
1003.305384
 20
726.706152
 30
0.0
 40
2.0
100
AcDbArc
 50
90.0
 51
178.958373
  0
LINE
  5
1F1
330
1F
100
AcDbEntity
  8
001
  6
HIDDEN
 62
     5
370
     9
100
AcDbLine
 10
1001.305715
 20
726.742509
 30
0.0
 11
1001.450508
 21
734.706152
 31
0.0
  0
ARC
  5
1F2
330
1F
100
AcDbEntity
  8
001
 62
     5
370
    30
100
AcDbCircle
 10
843.595632
 20
726.706152
 30
0.0
 40
2.0
100
AcDbArc
 50
1.041627
 51
90.0
  0
LINE
  5
1F3
330
1F
100
AcDbEntity
  8
001
  6
HIDDEN
 62
     5
370
     9
100
AcDbLine
 10
845.595302
 20
726.742509
 30
0.0
 11
845.450508
 21
734.706152
 31
0.0
  0
LINE
  5
1F4
330
1F
100
AcDbEntity
  8
001
  6
CENTER
 62
     5
370
     9
100
AcDbLine
 10
1028.450508
 20
523.206152
 30
0.0
 11
1028.450508
 21
498.706152
 31
0.0
  0
LINE
  5
1F5
330
1F
100
AcDbEntity
  8
001
 62
     5
370
    30
100
AcDbLine
 10
1022.821343
 20
523.206152
 30
0.0
 11
1020.944955
 21
522.122818
 31
0.0
  0
LINE
  5
1F6
330
1F
100
AcDbEntity
  8
001
 62
     5
370
    30
100
AcDbLine
 10
1034.079673
 20
523.206152
 30
0.0
 11
1035.956062
 21
522.122818
 31
0.0
  0
LINE
  5
1F7
330
1F
100
AcDbEntity
  8
001
 62
     5
370
    30
100
AcDbLine
 10
1020.944955
 20
522.122818
 30
0.0
 11
1020.944955
 21
514.706152
 31
0.0
  0
LINE
  5
1F8
330
1F
100
AcDbEntity
  8
001
 62
     5
370
    30
100
AcDbLine
 10
1035.956062
 20
522.122818
 30
0.0
 11
1035.956062
 21
514.706152
 31
0.0
  0
ARC
  5
1F9
330
1F
100
AcDbEntity
  8
001
 62
     5
370
    30
100
AcDbCircle
 10
1022.821343
 20
521.039485
 30
0.0
 40
2.16666666651644
100
AcDbArc
 50
30.0
 51
90.0
  0
ARC
  5
1FA
330
1F
100
AcDbEntity
  8
001
 62
     5
370
    30
100
AcDbCircle
 10
1034.079673
 20
521.039485
 30
0.0
 40
2.16666666651644
100
AcDbArc
 50
90.0
 51
150.0
  0
LINE
  5
1FB
330
1F
100
AcDbEntity
  8
001
 62
     5
370
    30
100
AcDbLine
 10
1024.697731
 20
522.122818
 30
0.0
 11
1024.697731
 21
516.706152
 31
0.0
  0
ARC
  5
1FC
330
1F
100
AcDbEntity
  8
001
 62
     5
370
    30
100
AcDbCircle
 10
1028.450508
 20
516.164485
 30
0.0
 40
7.041666666371407
100
AcDbArc
 50
57.795772
 51
122.204228
  0
LINE
  5
1FD
330
1F
100
AcDbEntity
  8
001
 62
     5
370
    30
100
AcDbLine
 10
1032.203285
 20
522.122818
 30
0.0
 11
1032.203285
 21
516.706152
 31
0.0
  0
LINE
  5
1FE
330
1F
100
AcDbEntity
  8
001
 62
     5
370
    30
100
AcDbLine
 10
1022.821343
 20
523.206152
 30
0.0
 11
1034.079673
 21
523.206152
 31
0.0
  0
LINE
  5
1FF
330
1F
100
AcDbEntity
  8
001
 62
     5
370
    30
100
AcDbLine
 10
1020.944955
 20
516.706152
 30
0.0
 11
1035.956062
 21
516.706152
 31
0.0
  0
LINE
  5
200
330
1F
100
AcDbEntity
  8
001
 62
     5
370
    30
100
AcDbLine
 10
1033.450508
 20
718.706152
 30
0.0
 11
1205.135508
 21
676.942898
 31
0.0
  0
LINE
  5
201
330
1F
100
AcDbEntity
  8
001
 62
     5
370
    30
100
AcDbLine
 10
808.450508
 20
718.706152
 30
0.0
 11
845.741417
 21
718.706152
 31
0.0
  0
LINE
  5
202
330
1F
100
AcDbEntity
  8
001
 62
     5
370
    30
100
AcDbLine
 10
1001.159599
 20
718.706152
 30
0.0
 11
1033.450508
 21
718.706152
 31
0.0
  0
LINE
  5
203
330
1F
100
AcDbEntity
  8
001
 62
     5
370
    30
100
AcDbLine
 10
870.950508
 20
755.506152
 30
0.0
 11
915.950508
 21
755.506152
 31
0.0
  0
LINE
  5
204
330
1F
100
AcDbEntity
  8
001
 62
     5
370
    30
100
AcDbLine
 10
913.950508
 20
775.506152
 30
0.0
 11
872.950508
 21
775.506152
 31
0.0
  0
LINE
  5
205
330
1F
100
AcDbEntity
  8
001
 62
     5
370
    30
100
AcDbLine
 10
870.950508
 20
755.506152
 30
0.0
 11
870.950508
 21
773.506152
 31
0.0
  0
LINE
  5
206
330
1F
100
AcDbEntity
  8
001
 62
     5
370
    30
100
AcDbLine
 10
915.950508
 20
755.506152
 30
0.0
 11
915.950508
 21
773.506152
 31
0.0
  0
ARC
  5
207
330
1F
100
AcDbEntity
  8
001
 62
     5
370
    30
100
AcDbCircle
 10
872.950508
 20
773.506152
 30
0.0
 40
2.0
100
AcDbArc
 50
90.0
 51
180.0
  0
ARC
  5
208
330
1F
100
AcDbEntity
  8
001
 62
     5
370
    30
100
AcDbCircle
 10
913.950508
 20
773.506152
 30
0.0
 40
2.0
100
AcDbArc
 50
0.0
 51
90.0
  0
LINE
  5
209
330
1F
100
AcDbEntity
  8
001
 62
     5
370
    30
100
AcDbLine
 10
914.450508
 20
755.506152
 30
0.0
 11
914.450508
 21
745.506152
 31
0.0
  0
LINE
  5
20A
330
1F
100
AcDbEntity
  8
001
 62
     5
370
    30
100
AcDbLine
 10
872.450508
 20
755.506152
 30
0.0
 11
872.450508
 21
745.506152
 31
0.0
  0
LINE
  5
20B
330
1F
100
AcDbEntity
  8
001
 62
     5
370
    30
100
AcDbLine
 10
904.450508
 20
781.706152
 30
0.0
 11
882.450508
 21
781.706152
 31
0.0
  0
LINE
  5
20C
330
1F
100
AcDbEntity
  8
001
 62
     5
370
    30
100
AcDbLine
 10
882.450508
 20
781.706152
 30
0.0
 11
882.450508
 21
775.506152
 31
0.0
  0
LINE
  5
20D
330
1F
100
AcDbEntity
  8
001
 62
     5
370
    30
100
AcDbLine
 10
904.450508
 20
781.706152
 30
0.0
 11
904.450508
 21
775.506152
 31
0.0
  0
LINE
  5
20E
330
1F
100
AcDbEntity
  8
001
 62
     5
370
     9
100
AcDbLine
 10
902.950508
 20
781.706152
 30
0.0
 11
902.950508
 21
775.506152
 31
0.0
  0
LINE
  5
20F
330
1F
100
AcDbEntity
  8
001
 62
     5
370
     9
100
AcDbLine
 10
883.950508
 20
781.706152
 30
0.0
 11
883.950508
 21
775.506152
 31
0.0
  0
LINE
  5
210
330
1F
100
AcDbEntity
  8
001
 62
     5
370
    30
100
AcDbLine
 10
839.450508
 20
704.706152
 30
0.0
 11
839.450508
 21
652.706152
 31
0.0
  0
LINE
  5
211
330
1F
100
AcDbEntity
  8
001
 62
     5
370
    30
100
AcDbLine
 10
845.660881
 20
705.706152
 30
0.0
 11
840.450508
 21
705.706152
 31
0.0
  0
LINE
  5
212
330
1F
100
AcDbEntity
  8
001
 62
     5
370
    30
100
AcDbLine
 10
846.643337
 20
651.706152
 30
0.0
 11
840.450508
 21
651.706152
 31
0.0
  0
ARC
  5
213
330
1F
100
AcDbEntity
  8
001
 62
     5
370
    30
100
AcDbCircle
 10
840.450508
 20
704.706152
 30
0.0
 40
1.0
100
AcDbArc
 50
90.0
 51
180.0
  0
ARC
  5
214
330
1F
100
AcDbEntity
  8
001
 62
     5
370
    30
100
AcDbCircle
 10
840.450508
 20
652.706152
 30
0.0
 40
1.0
100
AcDbArc
 50
180.0
 51
270.0
  0
ARC
  5
215
330
1F
100
AcDbEntity
  8
001
 62
     5
370
    30
100
AcDbCircle
 10
845.660881
 20
706.706152
 30
0.0
 40
1.0
100
AcDbArc
 50
270.0
 51
1.005086
  0
ARC
  5
216
330
1F
100
AcDbEntity
  8
001
 62
     5
370
    30
100
AcDbCircle
 10
846.643337
 20
650.706152
 30
0.0
 40
1.0
100
AcDbArc
 50
1.005086
 51
90.0
  0
LINE
  5
217
330
1F
100
AcDbEntity
  8
001
  6
CENTER
 62
     5
370
     9
100
AcDbLine
 10
847.152263
 20
678.706152
 30
0.0
 11
828.902003
 21
678.706152
 31
0.0
  0
LINE
  5
218
330
1F
100
AcDbEntity
  8
001
 62
     5
370
    30
100
AcDbLine
 10
833.450508
 20
652.706152
 30
0.0
 11
833.450508
 21
704.706152
 31
0.0
  0
LINE
  5
219
330
1F
100
AcDbEntity
  8
001
 62
     5
370
    30
100
AcDbLine
 10
833.450508
 20
704.706152
 30
0.0
 11
839.450508
 21
704.706152
 31
0.0
  0
LINE
  5
21A
330
1F
100
AcDbEntity
  8
001
 62
     5
370
    30
100
AcDbLine
 10
833.450508
 20
652.706152
 30
0.0
 11
839.450508
 21
652.706152
 31
0.0
  0
LINE
  5
21B
330
1F
100
AcDbEntity
  8
001
 62
     5
370
    30
100
AcDbLine
 10
845.450508
 20
536.706152
 30
0.0
 11
845.450508
 21
521.706152
 31
0.0
  0
LINE
  5
21C
330
1F
100
AcDbEntity
  8
001
 62
     5
370
    30
100
AcDbLine
 10
848.081779
 20
536.706152
 30
0.0
 11
845.450508
 21
536.706152
 31
0.0
  0
ARC
  5
21D
330
1F
100
AcDbEntity
  8
001
 62
     5
370
    30
100
AcDbCircle
 10
848.081779
 20
538.706152
 30
0.0
 40
2.0
100
AcDbArc
 50
270.0
 51
298.823422
  0
LINE
  5
21E
330
1F
100
AcDbEntity
  8
001
  6
CENTER
 62
     5
370
     9
100
AcDbLine
 10
850.310157
 20
525.706152
 30
0.0
 11
808.450508
 21
525.706152
 31
0.0
  0
LINE
  5
21F
330
1F
100
AcDbEntity
  8
001
 62
     5
370
    30
100
AcDbLine
 10
808.450508
 20
718.706152
 30
0.0
 11
808.450508
 21
516.706152
 31
0.0
  0
LINE
  5
220
330
1F
100
AcDbEntity
  8
001
 62
     5
370
    30
100
AcDbLine
 10
808.450508
 20
516.706152
 30
0.0
 11
808.450508
 21
514.706152
 31
0.0
  0
CIRCLE
  5
221
330
1F
100
AcDbEntity
  8
001
 62
     5
370
    30
100
AcDbCircle
 10
818.450508
 20
1267.490685
 30
0.0
 40
6.3
  0
LINE
  5
222
330
1F
100
AcDbEntity
  8
001
 62
     5
370
    30
100
AcDbLine
 10
818.450508
 20
1273.790685
 30
0.0
 11
814.813202
 21
1273.790685
 31
0.0
  0
LINE
  5
223
330
1F
100
AcDbEntity
  8
001
 62
     5
370
    30
100
AcDbLine
 10
822.087815
 20
1273.790685
 30
0.0
 11
825.725122
 21
1267.490685
 31
0.0
  0
LINE
  5
224
330
1F
100
AcDbEntity
  8
001
 62
     5
370
    30
100
AcDbLine
 10
818.450508
 20
1273.790685
 30
0.0
 11
822.087815
 21
1273.790685
 31
0.0
  0
LINE
  5
225
330
1F
100
AcDbEntity
  8
001
 62
     5
370
    30
100
AcDbLine
 10
818.450508
 20
1261.190685
 30
0.0
 11
814.813202
 21
1261.190685
 31
0.0
  0
LINE
  5
226
330
1F
100
AcDbEntity
  8
001
 62
     5
370
    30
100
AcDbLine
 10
822.087815
 20
1261.190685
 30
0.0
 11
825.725122
 21
1267.490685
 31
0.0
  0
LINE
  5
227
330
1F
100
AcDbEntity
  8
001
 62
     5
370
    30
100
AcDbLine
 10
818.450508
 20
1261.190685
 30
0.0
 11
822.087815
 21
1261.190685
 31
0.0
  0
LINE
  5
228
330
1F
100
AcDbEntity
  8
001
 62
     5
370
    30
100
AcDbLine
 10
814.813202
 20
1261.190685
 30
0.0
 11
811.175895
 21
1267.490685
 31
0.0
  0
LINE
  5
229
330
1F
100
AcDbEntity
  8
001
 62
     5
370
    30
100
AcDbLine
 10
814.813202
 20
1273.790685
 30
0.0
 11
811.175895
 21
1267.490685
 31
0.0
  0
CIRCLE
  5
22A
330
1F
100
AcDbEntity
  8
001
 62
     5
370
    30
100
AcDbCircle
 10
1028.450508
 20
1267.490685
 30
0.0
 40
6.3
  0
LINE
  5
22B
330
1F
100
AcDbEntity
  8
001
 62
     5
370
    30
100
AcDbLine
 10
1028.450508
 20
1273.790685
 30
0.0
 11
1024.813202
 21
1273.790685
 31
0.0
  0
LINE
  5
22C
330
1F
100
AcDbEntity
  8
001
 62
     5
370
    30
100
AcDbLine
 10
1032.087815
 20
1273.790685
 30
0.0
 11
1035.725122
 21
1267.490685
 31
0.0
  0
LINE
  5
22D
330
1F
100
AcDbEntity
  8
001
 62
     5
370
    30
100
AcDbLine
 10
1028.450508
 20
1273.790685
 30
0.0
 11
1032.087815
 21
1273.790685
 31
0.0
  0
LINE
  5
22E
330
1F
100
AcDbEntity
  8
001
 62
     5
370
    30
100
AcDbLine
 10
1028.450508
 20
1261.190685
 30
0.0
 11
1024.813202
 21
1261.190685
 31
0.0
  0
LINE
  5
22F
330
1F
100
AcDbEntity
  8
001
 62
     5
370
    30
100
AcDbLine
 10
1032.087815
 20
1261.190685
 30
0.0
 11
1035.725122
 21
1267.490685
 31
0.0
  0
LINE
  5
230
330
1F
100
AcDbEntity
  8
001
 62
     5
370
    30
100
AcDbLine
 10
1028.450508
 20
1261.190685
 30
0.0
 11
1032.087815
 21
1261.190685
 31
0.0
  0
LINE
  5
231
330
1F
100
AcDbEntity
  8
001
 62
     5
370
    30
100
AcDbLine
 10
1024.813202
 20
1261.190685
 30
0.0
 11
1021.175895
 21
1267.490685
 31
0.0
  0
LINE
  5
232
330
1F
100
AcDbEntity
  8
001
 62
     5
370
    30
100
AcDbLine
 10
1024.813202
 20
1273.790685
 30
0.0
 11
1021.175895
 21
1267.490685
 31
0.0
  0
CIRCLE
  5
233
330
1F
100
AcDbEntity
  8
001
 62
     5
370
    30
100
AcDbCircle
 10
1028.450508
 20
1153.490685
 30
0.0
 40
6.3
  0
LINE
  5
234
330
1F
100
AcDbEntity
  8
001
 62
     5
370
    30
100
AcDbLine
 10
1028.450508
 20
1159.790685
 30
0.0
 11
1024.813202
 21
1159.790685
 31
0.0
  0
LINE
  5
235
330
1F
100
AcDbEntity
  8
001
 62
     5
370
    30
100
AcDbLine
 10
1032.087815
 20
1159.790685
 30
0.0
 11
1035.725122
 21
1153.490685
 31
0.0
  0
LINE
  5
236
330
1F
100
AcDbEntity
  8
001
 62
     5
370
    30
100
AcDbLine
 10
1028.450508
 20
1159.790685
 30
0.0
 11
1032.087815
 21
1159.790685
 31
0.0
  0
LINE
  5
237
330
1F
100
AcDbEntity
  8
001
 62
     5
370
    30
100
AcDbLine
 10
1028.450508
 20
1147.190685
 30
0.0
 11
1024.813202
 21
1147.190685
 31
0.0
  0
LINE
  5
238
330
1F
100
AcDbEntity
  8
001
 62
     5
370
    30
100
AcDbLine
 10
1032.087815
 20
1147.190685
 30
0.0
 11
1035.725122
 21
1153.490685
 31
0.0
  0
LINE
  5
239
330
1F
100
AcDbEntity
  8
001
 62
     5
370
    30
100
AcDbLine
 10
1028.450508
 20
1147.190685
 30
0.0
 11
1032.087815
 21
1147.190685
 31
0.0
  0
LINE
  5
23A
330
1F
100
AcDbEntity
  8
001
 62
     5
370
    30
100
AcDbLine
 10
1024.813202
 20
1147.190685
 30
0.0
 11
1021.175895
 21
1153.490685
 31
0.0
  0
LINE
  5
23B
330
1F
100
AcDbEntity
  8
001
 62
     5
370
    30
100
AcDbLine
 10
1024.813202
 20
1159.790685
 30
0.0
 11
1021.175895
 21
1153.490685
 31
0.0
  0
LINE
  5
23C
330
1F
100
AcDbEntity
  8
001
 62
     5
370
    30
100
AcDbLine
 10
1022.950508
 20
1271.990685
 30
0.0
 11
1023.773971
 21
1271.990685
 31
0.0
  0
LINE
  5
23D
330
1F
100
AcDbEntity
  8
001
 62
     5
370
    30
100
AcDbLine
 10
1033.127045
 20
1271.990685
 30
0.0
 11
1033.950508
 21
1271.990685
 31
0.0
  0
LINE
  5
23E
330
1F
100
AcDbEntity
  8
001
 62
     5
370
    30
100
AcDbLine
 10
1022.950508
 20
1262.990685
 30
0.0
 11
1023.773971
 21
1262.990685
 31
0.0
  0
LINE
  5
23F
330
1F
100
AcDbEntity
  8
001
 62
     5
370
    30
100
AcDbLine
 10
1033.127045
 20
1262.990685
 30
0.0
 11
1033.950508
 21
1262.990685
 31
0.0
  0
LINE
  5
240
330
1F
100
AcDbEntity
  8
001
 62
     5
370
    30
100
AcDbLine
 10
1022.950508
 20
1157.990685
 30
0.0
 11
1024.041427
 21
1157.990685
 31
0.0
  0
LINE
  5
241
330
1F
100
AcDbEntity
  8
001
 62
     5
370
    30
100
AcDbLine
 10
1033.950508
 20
1157.990685
 30
0.0
 11
1033.127045
 21
1157.990685
 31
0.0
  0
LINE
  5
242
330
1F
100
AcDbEntity
  8
001
 62
     5
370
    30
100
AcDbLine
 10
1033.950508
 20
1148.990685
 30
0.0
 11
1033.127045
 21
1148.990685
 31
0.0
  0
LINE
  5
243
330
1F
100
AcDbEntity
  8
001
 62
     5
370
    30
100
AcDbLine
 10
1023.773971
 20
1148.990685
 30
0.0
 11
1022.950508
 21
1148.990685
 31
0.0
  0
LINE
  5
244
330
1F
100
AcDbEntity
  8
001
 62
     5
370
    30
100
AcDbLine
 10
812.950508
 20
1271.990685
 30
0.0
 11
813.773971
 21
1271.990685
 31
0.0
  0
LINE
  5
245
330
1F
100
AcDbEntity
  8
001
 62
     5
370
    30
100
AcDbLine
 10
823.127045
 20
1271.990685
 30
0.0
 11
823.950508
 21
1271.990685
 31
0.0
  0
LINE
  5
246
330
1F
100
AcDbEntity
  8
001
 62
     5
370
    30
100
AcDbLine
 10
812.950508
 20
1262.990685
 30
0.0
 11
813.773971
 21
1262.990685
 31
0.0
  0
LINE
  5
247
330
1F
100
AcDbEntity
  8
001
 62
     5
370
    30
100
AcDbLine
 10
823.127045
 20
1262.990685
 30
0.0
 11
823.950508
 21
1262.990685
 31
0.0
  0
LINE
  5
248
330
1F
100
AcDbEntity
  8
001
 62
     5
370
    30
100
AcDbLine
 10
812.950508
 20
1157.990685
 30
0.0
 11
813.773971
 21
1157.990685
 31
0.0
  0
LINE
  5
249
330
1F
100
AcDbEntity
  8
001
 62
     5
370
    30
100
AcDbLine
 10
823.127045
 20
1157.990685
 30
0.0
 11
823.950508
 21
1157.990685
 31
0.0
  0
LINE
  5
24A
330
1F
100
AcDbEntity
  8
001
 62
     5
370
    30
100
AcDbLine
 10
812.950508
 20
1148.990685
 30
0.0
 11
813.773971
 21
1148.990685
 31
0.0
  0
LINE
  5
24B
330
1F
100
AcDbEntity
  8
001
 62
     5
370
    30
100
AcDbLine
 10
823.127045
 20
1148.990685
 30
0.0
 11
823.950508
 21
1148.990685
 31
0.0
  0
LINE
  5
24C
330
1F
100
AcDbEntity
  8
001
  6
CENTER
 62
     5
370
     9
100
AcDbLine
 10
923.450508
 20
1113.740685
 30
0.0
 11
923.450508
 21
1102.490685
 31
0.0
  0
LINE
  5
24D
330
1F
100
AcDbEntity
  8
001
  6
CENTER
 62
     5
370
     9
100
AcDbLine
 10
860.450508
 20
1318.490685
 30
0.0
 11
860.450508
 21
1307.240685
 31
0.0
  0
LINE
  5
24E
330
1F
100
AcDbEntity
  8
001
  6
CENTER
 62
     5
370
     9
100
AcDbLine
 10
860.450508
 20
1113.740685
 30
0.0
 11
860.450508
 21
1102.490685
 31
0.0
  0
LINE
  5
24F
330
1F
100
AcDbEntity
  8
001
 62
     5
370
    30
100
AcDbLine
 10
946.450508
 20
756.506152
 30
0.0
 11
946.450508
 21
750.506152
 31
0.0
  0
LINE
  5
250
330
1F
100
AcDbEntity
  8
001
 62
     5
370
    30
100
AcDbLine
 10
980.450508
 20
756.506152
 30
0.0
 11
980.450508
 21
750.506152
 31
0.0
  0
LINE
  5
251
330
1F
100
AcDbEntity
  8
001
 62
     5
370
    30
100
AcDbLine
 10
979.450508
 20
757.506152
 30
0.0
 11
947.450508
 21
757.506152
 31
0.0
  0
LINE
  5
252
330
1F
100
AcDbEntity
  8
001
 62
     5
370
    30
100
AcDbLine
 10
980.450508
 20
750.506152
 30
0.0
 11
979.450508
 21
749.506152
 31
0.0
  0
LINE
  5
253
330
1F
100
AcDbEntity
  8
001
 62
     5
370
    30
100
AcDbLine
 10
947.450508
 20
749.506152
 30
0.0
 11
946.450508
 21
750.506152
 31
0.0
  0
LINE
  5
254
330
1F
100
AcDbEntity
  8
001
 62
     5
370
    30
100
AcDbLine
 10
946.450508
 20
756.506152
 30
0.0
 11
947.450508
 21
757.506152
 31
0.0
  0
LINE
  5
255
330
1F
100
AcDbEntity
  8
001
 62
     5
370
    30
100
AcDbLine
 10
979.450508
 20
757.506152
 30
0.0
 11
980.450508
 21
756.506152
 31
0.0
  0
LINE
  5
256
330
1F
100
AcDbEntity
  8
001
 62
     5
370
    30
100
AcDbLine
 10
980.450508
 20
756.506152
 30
0.0
 11
946.450508
 21
756.506152
 31
0.0
  0
LINE
  5
257
330
1F
100
AcDbEntity
  8
001
 62
     5
370
    30
100
AcDbLine
 10
946.450508
 20
750.506152
 30
0.0
 11
980.450508
 21
750.506152
 31
0.0
  0
LINE
  5
258
330
1F
100
AcDbEntity
  8
001
 62
     5
370
    30
100
AcDbLine
 10
803.450508
 20
1352.490685
 30
0.0
 11
808.450508
 21
1352.490685
 31
0.0
  0
LINE
  5
259
330
1F
100
AcDbEntity
  8
001
 62
     5
370
    30
100
AcDbLine
 10
1283.082322
 20
625.23115
 30
0.0
 11
1287.444996
 21
629.593824
 31
0.0
  0
LINE
  5
25A
330
1F
100
AcDbEntity
  8
001
 62
     5
370
    30
100
AcDbLine
 10
1283.082322
 20
625.23115
 30
0.0
 11
1281.129186
 21
623.278014
 31
0.0
  0
ARC
  5
25B
330
1F
100
AcDbEntity
  8
001
 62
     5
370
    30
100
AcDbCircle
 10
1209.450508
 20
601.206152
 30
0.0
 40
83.0
100
AcDbArc
 50
20.0
 51
70.0
  0
LINE
  5
25C
330
1F
100
AcDbEntity
  8
001
 62
     5
370
    30
100
AcDbLine
 10
1231.522371
 20
672.88483
 30
0.0
 11
1237.83818
 21
679.200639
 31
0.0
  0
LINE
  5
25D
330
1F
100
AcDbEntity
  8
001
 62
     5
370
    30
100
AcDbLine
 10
1287.444996
 20
1241.328828
 30
0.0
 11
1287.444996
 21
1291.328828
 31
0.0
  0
LINE
  5
25E
330
1F
100
AcDbEntity
  8
001
 62
     5
370
    30
100
AcDbLine
 10
1287.444996
 20
1241.328828
 30
0.0
 11
1225.425967
 21
1241.328828
 31
0.0
  0
LINE
  5
25F
330
1F
100
AcDbEntity
  8
001
 62
     5
370
    30
100
AcDbLine
 10
1237.83818
 20
1241.328828
 30
0.0
 11
1237.83818
 21
1291.328828
 31
0.0
  0
LINE
  5
260
330
1F
100
AcDbEntity
  8
001
 62
     5
370
    30
100
AcDbLine
 10
1225.425967
 20
1241.328828
 30
0.0
 11
1225.425967
 21
1291.328828
 31
0.0
  0
LINE
  5
261
330
1F
100
AcDbEntity
  8
001
 62
     5
370
    30
100
AcDbLine
 10
1225.425967
 20
1291.328828
 30
0.0
 11
1287.444996
 21
1291.328828
 31
0.0
  0
LINE
  5
262
330
1F
100
AcDbEntity
  8
001
 62
     5
370
    30
100
AcDbLine
 10
803.450508
 20
498.706152
 30
0.0
 11
1303.450508
 21
498.706152
 31
0.0
  0
LINE
  5
263
330
1F
100
AcDbEntity
  8
001
 62
     5
370
    30
100
AcDbLine
 10
1303.450508
 20
1082.490685
 30
0.0
 11
1301.931846
 21
1082.490685
 31
0.0
  0
LINE
  5
264
330
1F
100
AcDbEntity
  8
001
 62
     5
370
    30
100
AcDbLine
 10
803.450508
 20
1352.490685
 30
0.0
 11
803.450508
 21
1052.490685
 31
0.0
  0
LINE
  5
265
330
1F
100
AcDbEntity
  8
001
 62
     5
370
    30
100
AcDbLine
 10
803.450508
 20
463.706152
 30
0.0
 11
803.450508
 21
498.706152
 31
0.0
  0
LINE
  5
266
330
1F
100
AcDbEntity
  8
001
  6
CENTER
 62
     5
370
     9
100
AcDbLine
 10
903.450508
 20
440.712239
 30
0.0
 11
903.450508
 21
498.706152
 31
0.0
  0
LINE
  5
267
330
1F
100
AcDbEntity
  8
001
 62
     5
370
    30
100
AcDbLine
 10
886.450508
 20
821.706152
 30
0.0
 11
900.396562
 21
821.706152
 31
0.0
  0
LINE
  5
268
330
1F
100
AcDbEntity
  8
001
 62
     5
370
    30
100
AcDbLine
 10
901.500446
 20
820.707399
 30
0.0
 11
903.450508
 21
781.706152
 31
0.0
  0
LINE
  5
269
330
1F
100
AcDbEntity
  8
001
 62
     5
370
    30
100
AcDbLine
 10
885.397877
 20
820.65352
 30
0.0
 11
883.450508
 21
781.706152
 31
0.0
  0
LINE
  5
26A
330
1F
100
AcDbEntity
  8
001
 62
     5
370
    30
100
AcDbLine
 10
901.500446
 20
820.707399
 30
0.0
 11
900.396562
 21
821.706152
 31
0.0
  0
LINE
  5
26B
330
1F
100
AcDbEntity
  8
001
 62
     5
370
    30
100
AcDbLine
 10
886.450508
 20
821.706152
 30
0.0
 11
885.397877
 21
820.65352
 31
0.0
  0
LINE
  5
26C
330
1F
100
AcDbEntity
  8
001
 62
     5
370
    30
100
AcDbLine
 10
885.397877
 20
820.65352
 30
0.0
 11
901.500446
 21
820.65352
 31
0.0
  0
LINE
  5
26D
330
1F
100
AcDbEntity
  8
001
 62
     5
370
    30
100
AcDbLine
 10
835.450508
 20
1125.490685
 30
0.0
 11
835.450508
 21
1295.490685
 31
0.0
  0
LINE
  5
26E
330
1F
100
AcDbEntity
  8
001
  6
CENTER
 62
     5
370
     9
100
AcDbLine
 10
842.450508
 20
1125.490685
 30
0.0
 11
842.450508
 21
1295.490685
 31
0.0
  0
LINE
  5
26F
330
1F
100
AcDbEntity
  8
001
 62
     5
370
    30
100
AcDbLine
 10
858.450508
 20
1318.490685
 30
0.0
 11
835.450508
 21
1295.490685
 31
0.0
  0
LINE
  5
270
330
1F
100
AcDbEntity
  8
001
 62
     5
370
    30
100
AcDbLine
 10
848.450508
 20
1317.490685
 30
0.0
 11
858.450508
 21
1327.490685
 31
0.0
  0
LINE
  5
271
330
1F
100
AcDbEntity
  8
001
 62
     5
370
    30
100
AcDbLine
 10
808.450508
 20
1317.490685
 30
0.0
 11
848.450508
 21
1317.490685
 31
0.0
  0
LINE
  5
272
330
1F
100
AcDbEntity
  8
001
 62
     5
370
    30
100
AcDbLine
 10
803.450508
 20
1087.490685
 30
0.0
 11
1303.450508
 21
1087.490685
 31
0.0
  0
LINE
  5
273
330
1F
100
AcDbEntity
  8
001
 62
     5
370
    30
100
AcDbLine
 10
1303.450508
 20
1052.490685
 30
0.0
 11
1303.450508
 21
1352.490685
 31
0.0
  0
CIRCLE
  5
274
330
1F
100
AcDbEntity
  8
001
 62
     5
370
    30
100
AcDbCircle
 10
893.450508
 20
1205.490685
 30
0.0
 40
8.0
  0
CIRCLE
  5
275
330
1F
100
AcDbEntity
  8
001
 62
     5
370
    30
100
AcDbCircle
 10
893.450508
 20
1205.490685
 30
0.0
 40
10.0
  0
CIRCLE
  5
276
330
1F
100
AcDbEntity
  8
001
 62
     5
370
    30
100
AcDbCircle
 10
893.450508
 20
1205.490685
 30
0.0
 40
22.5
  0
LINE
  5
277
330
1F
100
AcDbEntity
  8
001
 62
     5
370
    30
100
AcDbLine
 10
1043.450508
 20
512.706152
 30
0.0
 11
1043.450508
 21
498.706152
 31
0.0
  0
LINE
  5
278
330
1F
100
AcDbEntity
  8
001
 62
     5
370
    30
100
AcDbLine
 10
986.487091
 20
510.669569
 30
0.0
 11
986.487091
 21
498.706152
 31
0.0
  0
LINE
  5
279
330
1F
100
AcDbEntity
  8
001
 62
     5
370
    30
100
AcDbLine
 10
803.450508
 20
512.706152
 30
0.0
 11
803.450508
 21
498.706152
 31
0.0
  0
LINE
  5
27A
330
1F
100
AcDbEntity
  8
001
 62
     5
370
    30
100
AcDbLine
 10
860.413926
 20
510.669569
 30
0.0
 11
860.413926
 21
498.706152
 31
0.0
  0
ARC
  5
27B
330
1F
100
AcDbEntity
  8
001
 62
     5
370
    30
100
AcDbCircle
 10
1250.950508
 20
503.706152
 30
0.0
 40
2.0
100
AcDbArc
 50
180.0
 51
270.0
  0
ARC
  5
27C
330
1F
100
AcDbEntity
  8
001
 62
     5
370
    30
100
AcDbCircle
 10
1250.950508
 20
503.706152
 30
0.0
 40
5.0
100
AcDbArc
 50
180.0
 51
270.0
  0
LINE
  5
27D
330
1F
100
AcDbEntity
  8
001
 62
     5
370
    30
100
AcDbLine
 10
1167.950508
 20
527.206152
 30
0.0
 11
1137.950508
 21
527.206152
 31
0.0
  0
LINE
  5
27E
330
1F
100
AcDbEntity
  8
001
 62
     5
370
    30
100
AcDbLine
 10
1172.950508
 20
503.706152
 30
0.0
 11
1172.950508
 21
525.206152
 31
0.0
  0
LINE
  5
27F
330
1F
100
AcDbEntity
  8
001
 62
     5
370
    30
100
AcDbLine
 10
1169.950508
 20
503.706152
 30
0.0
 11
1169.950508
 21
525.206152
 31
0.0
  0
LINE
  5
280
330
1F
100
AcDbEntity
  8
001
 62
     5
370
    30
100
AcDbLine
 10
1137.950508
 20
501.706152
 30
0.0
 11
1137.950508
 21
498.706152
 31
0.0
  0
LINE
  5
281
330
1F
100
AcDbEntity
  8
001
 62
     5
370
    30
100
AcDbLine
 10
1167.950508
 20
501.706152
 30
0.0
 11
1137.950508
 21
501.706152
 31
0.0
  0
ARC
  5
282
330
1F
100
AcDbEntity
  8
001
 62
     5
370
    30
100
AcDbCircle
 10
1167.950508
 20
503.706152
 30
0.0
 40
2.0
100
AcDbArc
 50
270.0
 51
0.0
  0
ARC
  5
283
330
1F
100
AcDbEntity
  8
001
 62
     5
370
    30
100
AcDbCircle
 10
1167.950508
 20
503.706152
 30
0.0
 40
5.0
100
AcDbArc
 50
270.0
 51
0.0
  0
LINE
  5
284
330
1F
100
AcDbEntity
  8
001
  6
CENTER
 62
     5
370
     9
100
AcDbLine
 10
847.814145
 20
604.706152
 30
0.0
 11
999.086872
 21
604.706152
 31
0.0
  0
CIRCLE
  5
285
330
1F
100
AcDbEntity
  8
001
 62
     5
370
    30
100
AcDbCircle
 10
903.450508
 20
1067.490685
 30
0.0
 40
5.5
  0
LINE
  5
286
330
1F
100
AcDbEntity
  8
001
  6
CENTER
 62
     5
370
     9
100
AcDbLine
 10
903.450508
 20
1051.490685
 30
0.0
 11
903.450508
 21
1087.490685
 31
0.0
  0
LINE
  5
287
330
1F
100
AcDbEntity
  8
001
  6
CENTER
 62
     5
370
     9
100
AcDbLine
 10
934.973822
 20
1067.490685
 30
0.0
 11
884.450508
 21
1067.490685
 31
0.0
  0
LINE
  5
288
330
1F
100
AcDbEntity
  8
001
 62
     5
370
    30
100
AcDbLine
 10
343.971347
 20
498.706152
 30
0.0
 11
563.571347
 21
498.706152
 31
0.0
  0
LINE
  5
289
330
1F
100
AcDbEntity
  8
001
 62
     5
370
    30
100
AcDbLine
 10
563.571347
 20
495.506152
 30
0.0
 11
343.971347
 21
495.506152
 31
0.0
  0
LINE
  5
28A
330
1F
100
AcDbEntity
  8
001
 62
     5
370
    30
100
AcDbLine
 10
565.571347
 20
468.906152
 30
0.0
 11
565.571347
 21
493.506152
 31
0.0
  0
LINE
  5
28B
330
1F
100
AcDbEntity
  8
001
 62
     5
370
    30
100
AcDbLine
 10
603.771347
 20
463.706152
 30
0.0
 11
570.771347
 21
463.706152
 31
0.0
  0
ARC
  5
28C
330
1F
100
AcDbEntity
  8
001
 62
     5
370
    30
100
AcDbCircle
 10
563.571347
 20
493.506152
 30
0.0
 40
2.0
100
AcDbArc
 50
0.0
 51
90.0
  0
ARC
  5
28D
330
1F
100
AcDbEntity
  8
001
 62
     5
370
    30
100
AcDbCircle
 10
570.771347
 20
468.906152
 30
0.0
 40
5.2
100
AcDbArc
 50
180.0
 51
270.0
  0
LINE
  5
28E
330
1F
100
AcDbEntity
  8
001
  6
CENTER
 62
     5
370
     9
100
AcDbLine
 10
507.771347
 20
520.462085
 30
0.0
 11
507.771347
 21
470.206152
 31
0.0
  0
LINE
  5
28F
330
1F
100
AcDbEntity
  8
001
  6
CENTER
 62
     5
370
     9
100
AcDbLine
 10
393.771347
 20
520.828511
 30
0.0
 11
393.771347
 21
470.206152
 31
0.0
  0
LINE
  5
290
330
1F
100
AcDbEntity
  8
001
  6
CENTER
 62
     5
370
     9
100
AcDbLine
 10
588.771347
 20
439.232183
 30
0.0
 11
588.771347
 21
481.820836
 31
0.0
  0
LINE
  5
291
330
1F
100
AcDbEntity
  8
001
 62
     5
370
    30
100
AcDbLine
 10
558.771347
 20
743.506152
 30
0.0
 11
558.771347
 21
734.706152
 31
0.0
  0
LINE
  5
292
330
1F
100
AcDbEntity
  8
001
 62
     5
370
    30
100
AcDbLine
 10
342.771347
 20
743.506152
 30
0.0
 11
342.771347
 21
734.706152
 31
0.0
  0
LINE
  5
293
330
1F
100
AcDbEntity
  8
001
 62
     5
370
    30
100
AcDbLine
 10
341.971347
 20
468.906152
 30
0.0
 11
341.971347
 21
493.506152
 31
0.0
  0
LINE
  5
294
330
1F
100
AcDbEntity
  8
001
 62
     5
370
    30
100
AcDbLine
 10
303.771347
 20
463.706152
 30
0.0
 11
336.771347
 21
463.706152
 31
0.0
  0
ARC
  5
295
330
1F
100
AcDbEntity
  8
001
 62
     5
370
    30
100
AcDbCircle
 10
343.971347
 20
493.506152
 30
0.0
 40
2.0
100
AcDbArc
 50
90.0
 51
180.0
  0
ARC
  5
296
330
1F
100
AcDbEntity
  8
001
 62
     5
370
    30
100
AcDbCircle
 10
336.771347
 20
468.906152
 30
0.0
 40
5.2
100
AcDbArc
 50
270.0
 51
0.0
  0
LINE
  5
297
330
1F
100
AcDbEntity
  8
001
  6
CENTER
 62
     5
370
     9
100
AcDbLine
 10
318.771347
 20
439.232183
 30
0.0
 11
318.771347
 21
481.820836
 31
0.0
  0
LINE
  5
298
330
1F
100
AcDbEntity
  8
001
 62
     5
370
    30
100
AcDbLine
 10
338.771347
 20
718.706152
 30
0.0
 11
283.771347
 21
718.706152
 31
0.0
  0
LINE
  5
299
330
1F
100
AcDbEntity
  8
001
 62
     5
370
    30
100
AcDbLine
 10
338.771347
 20
498.706152
 30
0.0
 11
283.771347
 21
498.706152
 31
0.0
  0
LINE
  5
29A
330
1F
100
AcDbEntity
  8
001
 62
     5
370
    30
100
AcDbLine
 10
338.771347
 20
718.706152
 30
0.0
 11
338.771347
 21
498.706152
 31
0.0
  0
LINE
  5
29B
330
1F
100
AcDbEntity
  8
001
 62
     5
370
    30
100
AcDbLine
 10
283.771347
 20
718.706152
 30
0.0
 11
283.771347
 21
473.706152
 31
0.0
  0
LINE
  5
29C
330
1F
100
AcDbEntity
  8
001
 62
     5
370
    30
100
AcDbLine
 10
286.971347
 20
473.706152
 30
0.0
 11
283.771347
 21
473.706152
 31
0.0
  0
LINE
  5
29D
330
1F
100
AcDbEntity
  8
001
 62
     5
370
    30
100
AcDbLine
 10
286.971347
 20
473.706152
 30
0.0
 11
286.971347
 21
498.706152
 31
0.0
  0
LINE
  5
29E
330
1F
100
AcDbEntity
  8
001
 62
     5
370
    30
100
AcDbLine
 10
527.771347
 20
514.706152
 30
0.0
 11
487.771347
 21
514.706152
 31
0.0
  0
LINE
  5
29F
330
1F
100
AcDbEntity
  8
001
 62
     5
370
    30
100
AcDbLine
 10
487.771347
 20
524.706152
 30
0.0
 11
487.771347
 21
498.706152
 31
0.0
  0
LINE
  5
2A0
330
1F
100
AcDbEntity
  8
001
 62
     5
370
    30
100
AcDbLine
 10
527.771347
 20
524.706152
 30
0.0
 11
527.771347
 21
498.706152
 31
0.0
  0
LINE
  5
2A1
330
1F
100
AcDbEntity
  8
001
 62
     5
370
    30
100
AcDbLine
 10
369.771347
 20
514.706152
 30
0.0
 11
409.771347
 21
514.706152
 31
0.0
  0
LINE
  5
2A2
330
1F
100
AcDbEntity
  8
001
 62
     5
370
    30
100
AcDbLine
 10
409.771347
 20
524.706152
 30
0.0
 11
409.771347
 21
498.706152
 31
0.0
  0
LINE
  5
2A3
330
1F
100
AcDbEntity
  8
001
 62
     5
370
    30
100
AcDbLine
 10
369.771347
 20
524.706152
 30
0.0
 11
369.771347
 21
498.706152
 31
0.0
  0
LINE
  5
2A4
330
1F
100
AcDbEntity
  8
001
  6
CENTER
 62
     5
370
     9
100
AcDbLine
 10
448.771347
 20
538.970198
 30
0.0
 11
448.771347
 21
516.706152
 31
0.0
  0
CIRCLE
  5
2A5
330
1F
100
AcDbEntity
  8
001
 62
     5
370
    30
100
AcDbCircle
 10
448.771347
 20
525.706152
 30
0.0
 40
14.0
  0
LINE
  5
2A6
330
1F
100
AcDbEntity
  8
001
  6
CENTER
 62
     5
370
     9
100
AcDbLine
 10
434.771347
 20
525.706152
 30
0.0
 11
462.771347
 21
525.706152
 31
0.0
  0
CIRCLE
  5
2A7
330
1F
100
AcDbEntity
  8
001
 62
     5
370
    30
100
AcDbCircle
 10
450.771347
 20
678.706152
 30
0.0
 40
29.0
  0
CIRCLE
  5
2A8
330
1F
100
AcDbEntity
  8
001
 62
     5
370
    30
100
AcDbCircle
 10
450.771347
 20
678.706152
 30
0.0
 40
24.25
  0
CIRCLE
  5
2A9
330
1F
100
AcDbEntity
  8
001
 62
     5
370
    30
100
AcDbCircle
 10
450.771347
 20
678.706152
 30
0.0
 40
16.0
  0
CIRCLE
  5
2AA
330
1F
100
AcDbEntity
  8
001
  6
CENTER
 62
     5
370
     9
100
AcDbCircle
 10
450.771347
 20
678.706152
 30
0.0
 40
20.0
  0
LINE
  5
2AB
330
1F
100
AcDbEntity
  8
001
  6
CENTER
 62
     5
370
     9
100
AcDbLine
 10
462.085056
 20
690.01986
 30
0.0
 11
467.918687
 21
695.853491
 31
0.0
  0
LINE
  5
2AC
330
1F
100
AcDbEntity
  8
001
  6
CENTER
 62
     5
370
     9
100
AcDbLine
 10
439.457639
 20
690.01986
 30
0.0
 11
433.624008
 21
695.853491
 31
0.0
  0
LINE
  5
2AD
330
1F
100
AcDbEntity
  8
001
  6
CENTER
 62
     5
370
     9
100
AcDbLine
 10
439.457639
 20
667.392443
 30
0.0
 11
433.624008
 21
661.558812
 31
0.0
  0
LINE
  5
2AE
330
1F
100
AcDbEntity
  8
001
  6
CENTER
 62
     5
370
     9
100
AcDbLine
 10
462.085056
 20
667.392443
 30
0.0
 11
467.918687
 21
661.558812
 31
0.0
  0
LINE
  5
2AF
330
1F
100
AcDbEntity
  8
001
  6
CENTER
 62
     5
370
     9
100
AcDbLine
 10
421.771347
 20
678.706152
 30
0.0
 11
479.771347
 21
678.706152
 31
0.0
  0
LINE
  5
2B0
330
1F
100
AcDbEntity
  8
001
  6
CENTER
 62
     5
370
     9
100
AcDbLine
 10
450.771347
 20
649.706152
 30
0.0
 11
450.771347
 21
734.706152
 31
0.0
  0
LINE
  5
2B1
330
1F
100
AcDbEntity
  8
001
 62
     5
370
    30
100
AcDbLine
 10
558.771347
 20
734.706152
 30
0.0
 11
342.771347
 21
734.706152
 31
0.0
  0
LINE
  5
2B2
330
1F
100
AcDbEntity
  8
001
 62
     5
370
    30
100
AcDbLine
 10
558.771347
 20
728.706152
 30
0.0
 11
342.771347
 21
728.706152
 31
0.0
  0
LINE
  5
2B3
330
1F
100
AcDbEntity
  8
001
 62
     5
370
    30
100
AcDbLine
 10
558.771347
 20
734.706152
 30
0.0
 11
558.771347
 21
728.706152
 31
0.0
  0
LINE
  5
2B4
330
1F
100
AcDbEntity
  8
001
 62
     5
370
    30
100
AcDbLine
 10
342.771347
 20
728.706152
 30
0.0
 11
342.771347
 21
734.706152
 31
0.0
  0
LINE
  5
2B5
330
1F
100
AcDbEntity
  8
001
 62
     5
370
    30
100
AcDbLine
 10
527.771347
 20
514.706152
 30
0.0
 11
531.771347
 21
514.706152
 31
0.0
  0
LINE
  5
2B6
330
1F
100
AcDbEntity
  8
001
 62
     5
370
    30
100
AcDbLine
 10
544.958263
 20
524.706152
 30
0.0
 11
548.771347
 21
728.706152
 31
0.0
  0
LINE
  5
2B7
330
1F
100
AcDbEntity
  8
001
 62
     5
370
    30
100
AcDbLine
 10
356.584431
 20
524.706152
 30
0.0
 11
352.771347
 21
728.706152
 31
0.0
  0
LINE
  5
2B8
330
1F
100
AcDbEntity
  8
001
 62
     5
370
    30
100
AcDbLine
 10
531.958263
 20
524.706152
 30
0.0
 11
535.775888
 21
728.949058
 31
0.0
  0
LINE
  5
2B9
330
1F
100
AcDbEntity
  8
001
 62
     5
370
    30
100
AcDbLine
 10
369.771347
 20
514.706152
 30
0.0
 11
365.766807
 21
728.949058
 31
0.0
  0
LINE
  5
2BA
330
1F
100
AcDbEntity
  8
001
 62
     5
370
    30
100
AcDbLine
 10
544.958263
 20
524.706152
 30
0.0
 11
531.771347
 21
514.706152
 31
0.0
  0
LINE
  5
2BB
330
1F
100
AcDbEntity
  8
001
 62
     5
370
    30
100
AcDbLine
 10
369.771347
 20
514.706152
 30
0.0
 11
356.584431
 21
524.706152
 31
0.0
  0
LINE
  5
2BC
330
1F
100
AcDbEntity
  8
001
 62
     5
370
    30
100
AcDbLine
 10
487.771347
 20
514.706152
 30
0.0
 11
457.431601
 21
514.706152
 31
0.0
  0
LINE
  5
2BD
330
1F
100
AcDbEntity
  8
001
 62
     5
370
    30
100
AcDbLine
 10
440.111093
 20
514.706152
 30
0.0
 11
409.771347
 21
514.706152
 31
0.0
  0
LINE
  5
2BE
330
1F
100
AcDbEntity
  8
001
 62
     5
370
    30
100
AcDbLine
 10
544.958263
 20
524.706152
 30
0.0
 11
462.735587
 21
524.706152
 31
0.0
  0
LINE
  5
2BF
330
1F
100
AcDbEntity
  8
001
 62
     5
370
    30
100
AcDbLine
 10
434.807107
 20
524.706152
 30
0.0
 11
356.584431
 21
524.706152
 31
0.0
  0
LINE
  5
2C0
330
1F
100
AcDbEntity
  8
001
 62
     5
370
    30
100
AcDbLine
 10
531.958263
 20
524.706152
 30
0.0
 11
527.771347
 21
521.531099
 31
0.0
  0
LINE
  5
2C1
330
1F
100
AcDbEntity
  8
001
 62
     5
370
    30
100
AcDbLine
 10
558.771347
 20
735.506152
 30
0.0
 11
342.771347
 21
735.506152
 31
0.0
  0
LINE
  5
2C2
330
1F
100
AcDbEntity
  8
001
 62
     5
370
    30
100
AcDbLine
 10
344.771347
 20
745.506152
 30
0.0
 11
556.771347
 21
745.506152
 31
0.0
  0
ARC
  5
2C3
330
1F
100
AcDbEntity
  8
001
 62
     5
370
    30
100
AcDbCircle
 10
556.771347
 20
743.506152
 30
0.0
 40
2.0
100
AcDbArc
 50
0.0
 51
90.0
  0
ARC
  5
2C4
330
1F
100
AcDbEntity
  8
001
 62
     5
370
    30
100
AcDbCircle
 10
344.771347
 20
743.506152
 30
0.0
 40
2.0
100
AcDbArc
 50
90.0
 51
180.0
  0
LINE
  5
2C5
330
1F
100
AcDbEntity
  8
001
 62
     5
370
    30
100
AcDbLine
 10
433.271347
 20
755.506152
 30
0.0
 11
433.271347
 21
773.506152
 31
0.0
  0
ARC
  5
2C6
330
1F
100
AcDbEntity
  8
001
 62
     5
370
    30
100
AcDbCircle
 10
435.271347
 20
773.506152
 30
0.0
 40
2.0
100
AcDbArc
 50
90.0
 51
180.0
  0
LINE
  5
2C7
330
1F
100
AcDbEntity
  8
001
 62
     5
370
    30
100
AcDbLine
 10
434.771347
 20
755.506152
 30
0.0
 11
434.771347
 21
745.506152
 31
0.0
  0
LINE
  5
2C8
330
1F
100
AcDbEntity
  8
001
 62
     5
370
    30
100
AcDbLine
 10
466.771347
 20
781.706152
 30
0.0
 11
444.771347
 21
781.706152
 31
0.0
  0
LINE
  5
2C9
330
1F
100
AcDbEntity
  8
001
 62
     5
370
    30
100
AcDbLine
 10
444.771347
 20
781.706152
 30
0.0
 11
444.771347
 21
775.506152
 31
0.0
  0
LINE
  5
2CA
330
1F
100
AcDbEntity
  8
001
 62
     5
370
    30
100
AcDbLine
 10
466.771347
 20
781.706152
 30
0.0
 11
466.771347
 21
775.506152
 31
0.0
  0
LINE
  5
2CB
330
1F
100
AcDbEntity
  8
001
 62
     5
370
     9
100
AcDbLine
 10
465.271347
 20
781.706152
 30
0.0
 11
465.271347
 21
775.506152
 31
0.0
  0
LINE
  5
2CC
330
1F
100
AcDbEntity
  8
001
 62
     5
370
     9
100
AcDbLine
 10
446.271347
 20
781.706152
 30
0.0
 11
446.271347
 21
775.506152
 31
0.0
  0
LINE
  5
2CD
330
1F
100
AcDbEntity
  8
001
 62
     5
370
    30
100
AcDbLine
 10
448.771347
 20
821.706152
 30
0.0
 11
462.717401
 21
821.706152
 31
0.0
  0
LINE
  5
2CE
330
1F
100
AcDbEntity
  8
001
 62
     5
370
    30
100
AcDbLine
 10
463.821285
 20
820.707399
 30
0.0
 11
465.771347
 21
781.706152
 31
0.0
  0
LINE
  5
2CF
330
1F
100
AcDbEntity
  8
001
 62
     5
370
    30
100
AcDbLine
 10
447.718716
 20
820.65352
 30
0.0
 11
445.771347
 21
781.706152
 31
0.0
  0
LINE
  5
2D0
330
1F
100
AcDbEntity
  8
001
 62
     5
370
    30
100
AcDbLine
 10
463.821285
 20
820.707399
 30
0.0
 11
462.717401
 21
821.706152
 31
0.0
  0
LINE
  5
2D1
330
1F
100
AcDbEntity
  8
001
 62
     5
370
    30
100
AcDbLine
 10
448.771347
 20
821.706152
 30
0.0
 11
447.718716
 21
820.65352
 31
0.0
  0
LINE
  5
2D2
330
1F
100
AcDbEntity
  8
001
 62
     5
370
    30
100
AcDbLine
 10
447.718716
 20
820.65352
 30
0.0
 11
463.821285
 21
820.65352
 31
0.0
  0
LINE
  5
2D3
330
1F
100
AcDbEntity
  8
001
 62
     5
370
    30
100
AcDbLine
 10
433.271347
 20
755.506152
 30
0.0
 11
478.271347
 21
755.506152
 31
0.0
  0
LINE
  5
2D4
330
1F
100
AcDbEntity
  8
001
 62
     5
370
    30
100
AcDbLine
 10
476.271347
 20
775.506152
 30
0.0
 11
435.271347
 21
775.506152
 31
0.0
  0
LINE
  5
2D5
330
1F
100
AcDbEntity
  8
001
 62
     5
370
    30
100
AcDbLine
 10
478.271347
 20
755.506152
 30
0.0
 11
478.271347
 21
773.506152
 31
0.0
  0
ARC
  5
2D6
330
1F
100
AcDbEntity
  8
001
 62
     5
370
    30
100
AcDbCircle
 10
476.271347
 20
773.506152
 30
0.0
 40
2.0
100
AcDbArc
 50
0.0
 51
90.0
  0
LINE
  5
2D7
330
1F
100
AcDbEntity
  8
001
 62
     5
370
    30
100
AcDbLine
 10
476.771347
 20
755.506152
 30
0.0
 11
476.771347
 21
745.506152
 31
0.0
  0
LINE
  5
2D8
330
1F
100
AcDbEntity
  8
001
 62
     5
370
    30
100
AcDbLine
 10
391.771347
 20
749.506152
 30
0.0
 11
429.771347
 21
749.506152
 31
0.0
  0
LINE
  5
2D9
330
1F
100
AcDbEntity
  8
001
 62
     5
370
    30
100
AcDbLine
 10
392.771347
 20
749.506152
 30
0.0
 11
392.771347
 21
747.506152
 31
0.0
  0
LINE
  5
2DA
330
1F
100
AcDbEntity
  8
001
 62
     5
370
    30
100
AcDbLine
 10
428.771347
 20
749.506152
 30
0.0
 11
428.771347
 21
747.506152
 31
0.0
  0
ARC
  5
2DB
330
1F
100
AcDbEntity
  8
001
 62
     5
370
    30
100
AcDbCircle
 10
390.771347
 20
747.506152
 30
0.0
 40
2.0
100
AcDbArc
 50
270.0
 51
0.0
  0
ARC
  5
2DC
330
1F
100
AcDbEntity
  8
001
 62
     5
370
    30
100
AcDbCircle
 10
430.771347
 20
747.506152
 30
0.0
 40
2.0
100
AcDbArc
 50
180.0
 51
270.0
  0
ARC
  5
2DD
330
1F
100
AcDbEntity
  8
001
 62
     5
370
    30
100
AcDbCircle
 10
488.771347
 20
749.506152
 30
0.0
 40
4.0
100
AcDbArc
 50
270.0
 51
0.0
  0
ARC
  5
2DE
330
1F
100
AcDbEntity
  8
001
 62
     5
370
    30
100
AcDbCircle
 10
532.771347
 20
749.506152
 30
0.0
 40
4.0
100
AcDbArc
 50
180.0
 51
270.0
  0
LINE
  5
2DF
330
1F
100
AcDbEntity
  8
001
 62
     5
370
    30
100
AcDbLine
 10
528.771347
 20
749.506152
 30
0.0
 11
492.771347
 21
749.506152
 31
0.0
  0
LINE
  5
2E0
330
1F
100
AcDbEntity
  8
001
 62
     5
370
    30
100
AcDbLine
 10
493.771347
 20
750.506152
 30
0.0
 11
527.771347
 21
750.506152
 31
0.0
  0
LINE
  5
2E1
330
1F
100
AcDbEntity
  8
001
 62
     5
370
    30
100
AcDbLine
 10
527.771347
 20
756.506152
 30
0.0
 11
493.771347
 21
756.506152
 31
0.0
  0
LINE
  5
2E2
330
1F
100
AcDbEntity
  8
001
 62
     5
370
    30
100
AcDbLine
 10
526.771347
 20
757.506152
 30
0.0
 11
494.771347
 21
757.506152
 31
0.0
  0
LINE
  5
2E3
330
1F
100
AcDbEntity
  8
001
 62
     5
370
    30
100
AcDbLine
 10
527.771347
 20
756.506152
 30
0.0
 11
527.771347
 21
750.506152
 31
0.0
  0
LINE
  5
2E4
330
1F
100
AcDbEntity
  8
001
 62
     5
370
    30
100
AcDbLine
 10
527.771347
 20
750.506152
 30
0.0
 11
526.771347
 21
749.506152
 31
0.0
  0
LINE
  5
2E5
330
1F
100
AcDbEntity
  8
001
 62
     5
370
    30
100
AcDbLine
 10
526.771347
 20
757.506152
 30
0.0
 11
527.771347
 21
756.506152
 31
0.0
  0
LINE
  5
2E6
330
1F
100
AcDbEntity
  8
001
 62
     5
370
    30
100
AcDbLine
 10
493.771347
 20
756.506152
 30
0.0
 11
493.771347
 21
750.506152
 31
0.0
  0
LINE
  5
2E7
330
1F
100
AcDbEntity
  8
001
 62
     5
370
    30
100
AcDbLine
 10
494.771347
 20
749.506152
 30
0.0
 11
493.771347
 21
750.506152
 31
0.0
  0
LINE
  5
2E8
330
1F
100
AcDbEntity
  8
001
 62
     5
370
    30
100
AcDbLine
 10
493.771347
 20
756.506152
 30
0.0
 11
494.771347
 21
757.506152
 31
0.0
  0
LINE
  5
2E9
330
1F
100
AcDbEntity
  8
001
  6
CENTER
 62
     5
370
     9
100
AcDbLine
 10
510.771347
 20
764.782411
 30
0.0
 11
510.771347
 21
745.506152
 31
0.0
  0
LINE
  5
2EA
330
1F
100
AcDbEntity
  8
001
  6
CENTER
 62
     5
370
     9
100
AcDbLine
 10
455.771347
 20
839.868665
 30
0.0
 11
455.771347
 21
745.506152
 31
0.0
  0
LINE
  5
2EB
330
1F
100
AcDbEntity
  8
001
 62
     5
370
    30
100
AcDbLine
 10
338.771347
 20
595.706152
 30
0.0
 11
352.771347
 21
595.706152
 31
0.0
  0
LINE
  5
2EC
330
1F
100
AcDbEntity
  8
001
 62
     5
370
    30
100
AcDbLine
 10
338.771347
 20
613.706152
 30
0.0
 11
352.771347
 21
613.706152
 31
0.0
  0
LINE
  5
2ED
330
1F
100
AcDbEntity
  8
001
 62
     5
370
    30
100
AcDbLine
 10
352.771347
 20
554.706152
 30
0.0
 11
356.023684
 21
554.706152
 31
0.0
  0
LINE
  5
2EE
330
1F
100
AcDbEntity
  8
001
 62
     5
370
    30
100
AcDbLine
 10
352.771347
 20
654.706152
 30
0.0
 11
354.154525
 21
654.706152
 31
0.0
  0
LINE
  5
2EF
330
1F
100
AcDbEntity
  8
001
  6
CENTER
 62
     5
370
     9
100
AcDbLine
 10
283.771347
 20
604.706152
 30
0.0
 11
368.089104
 21
604.706152
 31
0.0
  0
LINE
  5
2F0
330
1F
100
AcDbEntity
  8
001
 62
     5
370
    30
100
AcDbLine
 10
352.771347
 20
554.706152
 30
0.0
 11
352.771347
 21
654.706152
 31
0.0
  0
CIRCLE
  5
2F1
330
1F
100
AcDbEntity
  8
001
 62
     5
370
    30
100
AcDbCircle
 10
313.771347
 20
528.206152
 30
0.0
 40
6.5
  0
LINE
  5
2F2
330
1F
100
AcDbEntity
  8
001
 62
     5
370
    30
100
AcDbLine
 10
306.265794
 20
528.206152
 30
0.0
 11
310.018571
 21
521.706152
 31
0.0
  0
LINE
  5
2F3
330
1F
100
AcDbEntity
  8
001
 62
     5
370
    30
100
AcDbLine
 10
317.524124
 20
534.706152
 30
0.0
 11
321.276901
 21
528.206152
 31
0.0
  0
LINE
  5
2F4
330
1F
100
AcDbEntity
  8
001
 62
     5
370
    30
100
AcDbLine
 10
310.018571
 20
521.706152
 30
0.0
 11
317.524124
 21
521.706152
 31
0.0
  0
LINE
  5
2F5
330
1F
100
AcDbEntity
  8
001
 62
     5
370
    30
100
AcDbLine
 10
317.524124
 20
534.706152
 30
0.0
 11
310.018571
 21
534.706152
 31
0.0
  0
LINE
  5
2F6
330
1F
100
AcDbEntity
  8
001
 62
     5
370
    30
100
AcDbLine
 10
310.018571
 20
534.706152
 30
0.0
 11
306.265794
 21
528.206152
 31
0.0
  0
LINE
  5
2F7
330
1F
100
AcDbEntity
  8
001
 62
     5
370
    30
100
AcDbLine
 10
317.524124
 20
521.706152
 30
0.0
 11
321.276901
 21
528.206152
 31
0.0
  0
LINE
  5
2F8
330
1F
100
AcDbEntity
  8
001
  6
CENTER
 62
     5
370
     9
100
AcDbLine
 10
313.771347
 20
521.706152
 30
0.0
 11
313.771347
 21
534.706152
 31
0.0
  0
LINE
  5
2F9
330
1F
100
AcDbEntity
  8
001
  6
CENTER
 62
     5
370
     9
100
AcDbLine
 10
306.265794
 20
528.206152
 30
0.0
 11
321.276901
 21
528.206152
 31
0.0
  0
LINE
  5
2FA
330
1F
100
AcDbEntity
  8
001
 62
     5
370
    30
100
AcDbLine
 10
988.450508
 20
1318.490685
 30
0.0
 11
858.450508
 21
1318.490685
 31
0.0
  0
CIRCLE
  5
2FB
330
1F
100
AcDbEntity
  8
001
 62
     5
370
    30
100
AcDbCircle
 10
860.450508
 20
1311.990685
 30
0.0
 40
4.75
  0
LINE
  5
2FC
330
1F
100
AcDbEntity
  8
001
 62
     5
370
    30
100
AcDbLine
 10
914.450508
 20
1318.490685
 30
0.0
 11
914.450508
 21
1327.490685
 31
0.0
  0
LINE
  5
2FD
330
1F
100
AcDbEntity
  8
001
 62
     5
370
    30
100
AcDbLine
 10
932.450508
 20
1318.490685
 30
0.0
 11
932.450508
 21
1327.490685
 31
0.0
  0
LINE
  5
2FE
330
1F
100
AcDbEntity
  8
001
 62
     5
370
    30
100
AcDbLine
 10
843.450508
 20
533.789056
 30
0.0
 11
843.450508
 21
519.706152
 31
0.0
  0
LINE
  5
2FF
330
1F
100
AcDbEntity
  8
001
 62
     5
370
    30
100
AcDbLine
 10
830.450508
 20
517.623248
 30
0.0
 11
830.450508
 21
533.789056
 31
0.0
  0
LINE
  5
300
330
1F
100
AcDbEntity
  8
001
 62
     5
370
    30
100
AcDbLine
 10
828.450508
 20
516.468548
 30
0.0
 11
828.450508
 21
534.943756
 31
0.0
  0
LINE
  5
301
330
1F
100
AcDbEntity
  8
001
 62
     5
370
    30
100
AcDbLine
 10
843.450508
 20
533.789056
 30
0.0
 11
830.450508
 21
533.789056
 31
0.0
  0
LINE
  5
302
330
1F
100
AcDbEntity
  8
001
 62
     5
370
    30
100
AcDbLine
 10
843.450508
 20
529.747604
 30
0.0
 11
830.450508
 21
529.747604
 31
0.0
  0
LINE
  5
303
330
1F
100
AcDbEntity
  8
001
 62
     5
370
    30
100
AcDbLine
 10
843.450508
 20
521.6647
 30
0.0
 11
830.450508
 21
521.6647
 31
0.0
  0
LINE
  5
304
330
1F
100
AcDbEntity
  8
001
 62
     5
370
    30
100
AcDbLine
 10
841.367604
 20
517.623248
 30
0.0
 11
830.450508
 21
517.623248
 31
0.0
  0
LINE
  5
305
330
1F
100
AcDbEntity
  8
001
 62
     5
370
    30
100
AcDbLine
 10
830.450508
 20
518.806152
 30
0.0
 11
828.450508
 21
518.806152
 31
0.0
  0
LINE
  5
306
330
1F
100
AcDbEntity
  8
001
 62
     5
370
    30
100
AcDbLine
 10
830.450508
 20
532.606152
 30
0.0
 11
828.450508
 21
532.606152
 31
0.0
  0
LINE
  5
307
330
1F
100
AcDbEntity
  8
001
 62
     5
370
    30
100
AcDbLine
 10
814.950508
 20
532.456152
 30
0.0
 11
814.950508
 21
523.206152
 31
0.0
  0
LINE
  5
308
330
1F
100
AcDbEntity
  8
001
 62
     5
370
    30
100
AcDbLine
 10
448.771347
 20
542.969728
 30
0.0
 11
448.771347
 21
510.091355
 31
0.0
  0
LINE
  5
309
330
1F
100
AcDbEntity
  8
001
 62
     5
370
    30
100
AcDbLine
 10
440.771347
 20
521.08735
 30
0.0
 11
440.771347
 21
530.324954
 31
0.0
  0
LINE
  5
30A
330
1F
100
AcDbEntity
  8
001
 62
     5
370
    30
100
AcDbLine
 10
456.771347
 20
530.324954
 30
0.0
 11
456.771347
 21
521.08735
 31
0.0
  0
LINE
  5
30B
330
1F
100
AcDbEntity
  8
001
 62
     5
370
    30
100
AcDbLine
 10
448.771347
 20
534.943756
 30
0.0
 11
456.771347
 21
530.324954
 31
0.0
  0
LINE
  5
30C
330
1F
100
AcDbEntity
  8
001
 62
     5
370
    30
100
AcDbLine
 10
448.771347
 20
516.468548
 30
0.0
 11
440.771347
 21
521.08735
 31
0.0
  0
LINE
  5
30D
330
1F
100
AcDbEntity
  8
001
 62
     5
370
    30
100
AcDbLine
 10
456.771347
 20
521.08735
 30
0.0
 11
448.771347
 21
516.468548
 31
0.0
  0
LINE
  5
30E
330
1F
100
AcDbEntity
  8
001
 62
     5
370
    30
100
AcDbLine
 10
448.771347
 20
534.943756
 30
0.0
 11
440.771347
 21
530.324954
 31
0.0
  0
LINE
  5
30F
330
1F
100
AcDbEntity
  8
001
 62
     5
370
    30
100
AcDbLine
 10
828.450508
 20
534.943756
 30
0.0
 11
817.783842
 21
534.943756
 31
0.0
  0
LINE
  5
310
330
1F
100
AcDbEntity
  8
001
 62
     5
370
    30
100
AcDbLine
 10
828.450508
 20
530.324954
 30
0.0
 11
817.783842
 21
530.324954
 31
0.0
  0
LINE
  5
311
330
1F
100
AcDbEntity
  8
001
 62
     5
370
    30
100
AcDbLine
 10
828.450508
 20
521.08735
 30
0.0
 11
825.956062
 21
521.08735
 31
0.0
  0
CIRCLE
  5
312
330
1F
100
AcDbEntity
  8
001
 62
     5
370
    30
100
AcDbCircle
 10
448.771347
 20
525.706152
 30
0.0
 40
7.75
  0
LINE
  5
313
330
1F
100
AcDbEntity
  8
001
 62
     5
370
    30
100
AcDbLine
 10
815.950508
 20
533.456152
 30
0.0
 11
816.924973
 21
533.456152
 31
0.0
  0
LINE
  5
314
330
1F
100
AcDbEntity
  8
001
 62
     5
370
    30
100
AcDbLine
 10
816.450508
 20
532.634355
 30
0.0
 11
817.783842
 21
534.943756
 31
0.0
  0
ARC
  5
315
330
1F
100
AcDbEntity
  8
001
 62
     5
370
    30
100
AcDbCircle
 10
815.950508
 20
532.456152
 30
0.0
 40
1.0
100
AcDbArc
 50
90.0
 51
180.0
  0
LINE
  5
316
330
1F
100
AcDbEntity
  8
001
 62
     5
370
    30
100
AcDbLine
 10
816.450508
 20
532.634355
 30
0.0
 11
816.450508
 21
523.206152
 31
0.0
  0
LINE
  5
317
330
1F
100
AcDbEntity
  8
001
 62
     5
370
    30
100
AcDbLine
 10
828.450508
 20
516.706152
 30
0.0
 11
828.450508
 21
514.706152
 31
0.0
  0
LINE
  5
318
330
1F
100
AcDbEntity
  8
001
 62
     5
370
    30
100
AcDbLine
 10
808.450508
 20
516.706152
 30
0.0
 11
828.450508
 21
516.706152
 31
0.0
  0
ARC
  5
319
330
1F
100
AcDbEntity
  8
001
 62
     5
370
    30
100
AcDbCircle
 10
825.117175
 20
525.706152
 30
0.0
 40
8.666666667349128
100
AcDbArc
 50
147.795772
 51
196.765873
  0
LINE
  5
31A
330
1F
100
AcDbEntity
  8
001
 62
     5
370
    30
100
AcDbLine
 10
817.783842
 20
530.324954
 30
0.0
 11
816.450508
 21
532.634355
 31
0.0
  0
LINE
  5
31B
330
1F
100
AcDbEntity
  8
001
 62
     5
370
    30
100
AcDbLine
 10
803.450508
 20
510.669569
 30
0.0
 11
803.450508
 21
512.706152
 31
0.0
  0
ARC
  5
31C
330
1F
100
AcDbEntity
  8
001
 62
     5
370
    30
100
AcDbCircle
 10
805.450508
 20
512.706152
 30
0.0
 40
2.0
100
AcDbArc
 50
90.0
 51
180.0
  0
LINE
  5
31D
330
1F
100
AcDbEntity
  8
001
 62
     5
370
    30
100
AcDbLine
 10
845.450508
 20
531.206152
 30
0.0
 11
843.450508
 21
531.206152
 31
0.0
  0
LINE
  5
31E
330
1F
100
AcDbEntity
  8
001
 62
     5
370
    30
100
AcDbLine
 10
843.950508
 20
520.206152
 30
0.0
 11
843.450508
 21
520.206152
 31
0.0
  0
CIRCLE
  5
31F
330
1F
100
AcDbEntity
  8
001
  6
HIDDEN
 62
     5
370
     9
100
AcDbCircle
 10
923.450508
 20
604.706152
 30
0.0
 40
95.0
  0
POLYLINE
  5
320
330
1F
100
AcDbEntity
  8
001
 62
     5
370
    30
100
AcDb2dPolyline
 66
     1
 10
0.0
 20
0.0
 30
0.0
  0
VERTEX
  5
322
330
320
100
AcDbEntity
  8
001
 62
     5
370
    30
100
AcDbVertex
100
AcDb2dVertex
 10
1099.569504
 20
628.632089
 30
0.0
  0
VERTEX
  5
323
330
320
100
AcDbEntity
  8
001
 62
     5
370
    30
100
AcDbVertex
100
AcDb2dVertex
 10
1107.841103
 20
630.768823
 30
0.0
  0
VERTEX
  5
324
330
320
100
AcDbEntity
  8
001
 62
     5
370
    30
100
AcDbVertex
100
AcDb2dVertex
 10
1115.788655
 20
633.167516
 30
0.0
  0
VERTEX
  5
325
330
320
100
AcDbEntity
  8
001
 62
     5
370
    30
100
AcDbVertex
100
AcDb2dVertex
 10
1123.088114
 20
636.090129
 30
0.0
  0
VERTEX
  5
326
330
320
100
AcDbEntity
  8
001
 62
     5
370
    30
100
AcDbVertex
100
AcDb2dVertex
 10
1129.415432
 20
639.79862
 30
0.0
  0
VERTEX
  5
327
330
320
100
AcDbEntity
  8
001
 62
     5
370
    30
100
AcDbVertex
100
AcDb2dVertex
 10
1134.446562
 20
644.554949
 30
0.0
  0
VERTEX
  5
328
330
320
100
AcDbEntity
  8
001
 62
     5
370
    30
100
AcDbVertex
100
AcDb2dVertex
 10
1135.759297
 20
646.377087
 30
0.0
  0
VERTEX
  5
329
330
320
100
AcDbEntity
  8
001
 62
     5
370
    30
100
AcDbVertex
100
AcDb2dVertex
 10
1136.913716
 20
648.329958
 30
0.0
  0
VERTEX
  5
32A
330
320
100
AcDbEntity
  8
001
 62
     5
370
    30
100
AcDbVertex
100
AcDb2dVertex
 10
1137.924468
 20
650.404467
 30
0.0
  0
VERTEX
  5
32B
330
320
100
AcDbEntity
  8
001
 62
     5
370
    30
100
AcDbVertex
100
AcDb2dVertex
 10
1138.8062
 20
652.591524
 30
0.0
  0
VERTEX
  5
32C
330
320
100
AcDbEntity
  8
001
 62
     5
370
    30
100
AcDbVertex
100
AcDb2dVertex
 10
1139.573561
 20
654.882037
 30
0.0
  0
SEQEND
  5
321
330
320
100
AcDbEntity
  8
001
370
    30
  0
POLYLINE
  5
32D
330
1F
100
AcDbEntity
  8
001
 62
     5
370
    30
100
AcDb2dPolyline
 66
     1
 10
0.0
 20
0.0
 30
0.0
  0
VERTEX
  5
32F
330
32D
100
AcDbEntity
  8
001
 62
     5
370
    30
100
AcDbVertex
100
AcDb2dVertex
 10
1139.573561
 20
654.882037
 30
0.0
  0
VERTEX
  5
330
330
32D
100
AcDbEntity
  8
001
 62
     5
370
    30
100
AcDbVertex
100
AcDb2dVertex
 10
1140.616137
 20
658.80913
 30
0.0
  0
VERTEX
  5
331
330
32D
100
AcDbEntity
  8
001
 62
     5
370
    30
100
AcDbVertex
100
AcDb2dVertex
 10
1141.457583
 20
662.947125
 30
0.0
  0
VERTEX
  5
332
330
32D
100
AcDbEntity
  8
001
 62
     5
370
    30
100
AcDbVertex
100
AcDb2dVertex
 10
1142.161118
 20
667.25678
 30
0.0
  0
VERTEX
  5
333
330
32D
100
AcDbEntity
  8
001
 62
     5
370
    30
100
AcDbVertex
100
AcDb2dVertex
 10
1142.789962
 20
671.698856
 30
0.0
  0
VERTEX
  5
334
330
32D
100
AcDbEntity
  8
001
 62
     5
370
    30
100
AcDbVertex
100
AcDb2dVertex
 10
1143.407335
 20
676.234111
 30
0.0
  0
VERTEX
  5
335
330
32D
100
AcDbEntity
  8
001
 62
     5
370
    30
100
AcDbVertex
100
AcDb2dVertex
 10
1144.480963
 20
684.009679
 30
0.0
  0
VERTEX
  5
336
330
32D
100
AcDbEntity
  8
001
 62
     5
370
    30
100
AcDbVertex
100
AcDb2dVertex
 10
1145.261482
 20
691.645266
 30
0.0
  0
VERTEX
  5
337
330
32D
100
AcDbEntity
  8
001
 62
     5
370
    30
100
AcDbVertex
100
AcDb2dVertex
 10
1145.306983
 20
698.845797
 30
0.0
  0
VERTEX
  5
338
330
32D
100
AcDbEntity
  8
001
 62
     5
370
    30
100
AcDbVertex
100
AcDb2dVertex
 10
1144.17556
 20
705.3162
 30
0.0
  0
VERTEX
  5
339
330
32D
100
AcDbEntity
  8
001
 62
     5
370
    30
100
AcDbVertex
100
AcDb2dVertex
 10
1141.425305
 20
710.7614
 30
0.0
  0
VERTEX
  5
33A
330
32D
100
AcDbEntity
  8
001
 62
     5
370
    30
100
AcDbVertex
100
AcDb2dVertex
 10
1140.181059
 20
712.195308
 30
0.0
  0
VERTEX
  5
33B
330
32D
100
AcDbEntity
  8
001
 62
     5
370
    30
100
AcDbVertex
100
AcDb2dVertex
 10
1138.754251
 20
713.503701
 30
0.0
  0
VERTEX
  5
33C
330
32D
100
AcDbEntity
  8
001
 62
     5
370
    30
100
AcDbVertex
100
AcDb2dVertex
 10
1137.159941
 20
714.687674
 30
0.0
  0
VERTEX
  5
33D
330
32D
100
AcDbEntity
  8
001
 62
     5
370
    30
100
AcDbVertex
100
AcDb2dVertex
 10
1135.413186
 20
715.748324
 30
0.0
  0
VERTEX
  5
33E
330
32D
100
AcDbEntity
  8
001
 62
     5
370
    30
100
AcDbVertex
100
AcDb2dVertex
 10
1133.529044
 20
716.686746
 30
0.0
  0
VERTEX
  5
33F
330
32D
100
AcDbEntity
  8
001
 62
     5
370
    30
100
AcDbVertex
100
AcDb2dVertex
 10
1131.522573
 20
717.504036
 30
0.0
  0
VERTEX
  5
340
330
32D
100
AcDbEntity
  8
001
 62
     5
370
    30
100
AcDbVertex
100
AcDb2dVertex
 10
1129.408831
 20
718.201289
 30
0.0
  0
VERTEX
  5
341
330
32D
100
AcDbEntity
  8
001
 62
     5
370
    30
100
AcDbVertex
100
AcDb2dVertex
 10
1127.202875
 20
718.7796
 30
0.0
  0
VERTEX
  5
342
330
32D
100
AcDbEntity
  8
001
 62
     5
370
    30
100
AcDbVertex
100
AcDb2dVertex
 10
1124.919765
 20
719.240066
 30
0.0
  0
VERTEX
  5
343
330
32D
100
AcDbEntity
  8
001
 62
     5
370
    30
100
AcDbVertex
100
AcDb2dVertex
 10
1122.574557
 20
719.583782
 30
0.0
  0
VERTEX
  5
344
330
32D
100
AcDbEntity
  8
001
 62
     5
370
    30
100
AcDbVertex
100
AcDb2dVertex
 10
1120.182309
 20
719.811844
 30
0.0
  0
VERTEX
  5
345
330
32D
100
AcDbEntity
  8
001
 62
     5
370
    30
100
AcDbVertex
100
AcDb2dVertex
 10
1117.75808
 20
719.925347
 30
0.0
  0
VERTEX
  5
346
330
32D
100
AcDbEntity
  8
001
 62
     5
370
    30
100
AcDbVertex
100
AcDb2dVertex
 10
1115.316928
 20
719.925387
 30
0.0
  0
VERTEX
  5
347
330
32D
100
AcDbEntity
  8
001
 62
     5
370
    30
100
AcDbVertex
100
AcDb2dVertex
 10
1112.87391
 20
719.81306
 30
0.0
  0
VERTEX
  5
348
330
32D
100
AcDbEntity
  8
001
 62
     5
370
    30
100
AcDbVertex
100
AcDb2dVertex
 10
1110.444084
 20
719.589461
 30
0.0
  0
VERTEX
  5
349
330
32D
100
AcDbEntity
  8
001
 62
     5
370
    30
100
AcDbVertex
100
AcDb2dVertex
 10
1108.042508
 20
719.255685
 30
0.0
  0
VERTEX
  5
34A
330
32D
100
AcDbEntity
  8
001
 62
     5
370
    30
100
AcDbVertex
100
AcDb2dVertex
 10
1105.68424
 20
718.812829
 30
0.0
  0
VERTEX
  5
34B
330
32D
100
AcDbEntity
  8
001
 62
     5
370
    30
100
AcDbVertex
100
AcDb2dVertex
 10
1103.384339
 20
718.261988
 30
0.0
  0
VERTEX
  5
34C
330
32D
100
AcDbEntity
  8
001
 62
     5
370
    30
100
AcDbVertex
100
AcDb2dVertex
 10
1101.157861
 20
717.604258
 30
0.0
  0
VERTEX
  5
34D
330
32D
100
AcDbEntity
  8
001
 62
     5
370
    30
100
AcDbVertex
100
AcDb2dVertex
 10
1099.019865
 20
716.840734
 30
0.0
  0
VERTEX
  5
34E
330
32D
100
AcDbEntity
  8
001
 62
     5
370
    30
100
AcDbVertex
100
AcDb2dVertex
 10
1093.299116
 20
714.014921
 30
0.0
  0
VERTEX
  5
34F
330
32D
100
AcDbEntity
  8
001
 62
     5
370
    30
100
AcDbVertex
100
AcDb2dVertex
 10
1088.265641
 20
710.415772
 30
0.0
  0
VERTEX
  5
350
330
32D
100
AcDbEntity
  8
001
 62
     5
370
    30
100
AcDbVertex
100
AcDb2dVertex
 10
1083.714106
 20
706.17255
 30
0.0
  0
VERTEX
  5
351
330
32D
100
AcDbEntity
  8
001
 62
     5
370
    30
100
AcDbVertex
100
AcDb2dVertex
 10
1079.439175
 20
701.414516
 30
0.0
  0
VERTEX
  5
352
330
32D
100
AcDbEntity
  8
001
 62
     5
370
    30
100
AcDbVertex
100
AcDb2dVertex
 10
1075.23551
 20
696.270931
 30
0.0
  0
VERTEX
  5
353
330
32D
100
AcDbEntity
  8
001
 62
     5
370
    30
100
AcDbVertex
100
AcDb2dVertex
 10
1073.413489
 20
693.983576
 30
0.0
  0
VERTEX
  5
354
330
32D
100
AcDbEntity
  8
001
 62
     5
370
    30
100
AcDbVertex
100
AcDb2dVertex
 10
1071.582757
 20
691.652869
 30
0.0
  0
VERTEX
  5
355
330
32D
100
AcDbEntity
  8
001
 62
     5
370
    30
100
AcDbVertex
100
AcDb2dVertex
 10
1069.75914
 20
689.282362
 30
0.0
  0
VERTEX
  5
356
330
32D
100
AcDbEntity
  8
001
 62
     5
370
    30
100
AcDbVertex
100
AcDb2dVertex
 10
1067.958466
 20
686.875608
 30
0.0
  0
VERTEX
  5
357
330
32D
100
AcDbEntity
  8
001
 62
     5
370
    30
100
AcDbVertex
100
AcDb2dVertex
 10
1066.196559
 20
684.43616
 30
0.0
  0
VERTEX
  5
358
330
32D
100
AcDbEntity
  8
001
 62
     5
370
    30
100
AcDbVertex
100
AcDb2dVertex
 10
1064.489248
 20
681.967571
 30
0.0
  0
VERTEX
  5
359
330
32D
100
AcDbEntity
  8
001
 62
     5
370
    30
100
AcDbVertex
100
AcDb2dVertex
 10
1062.852356
 20
679.473394
 30
0.0
  0
VERTEX
  5
35A
330
32D
100
AcDbEntity
  8
001
 62
     5
370
    30
100
AcDbVertex
100
AcDb2dVertex
 10
1061.301712
 20
676.957181
 30
0.0
  0
VERTEX
  5
35B
330
32D
100
AcDbEntity
  8
001
 62
     5
370
    30
100
AcDbVertex
100
AcDb2dVertex
 10
1059.853142
 20
674.422486
 30
0.0
  0
VERTEX
  5
35C
330
32D
100
AcDbEntity
  8
001
 62
     5
370
    30
100
AcDbVertex
100
AcDb2dVertex
 10
1058.522471
 20
671.872861
 30
0.0
  0
VERTEX
  5
35D
330
32D
100
AcDbEntity
  8
001
 62
     5
370
    30
100
AcDbVertex
100
AcDb2dVertex
 10
1057.325526
 20
669.31186
 30
0.0
  0
VERTEX
  5
35E
330
32D
100
AcDbEntity
  8
001
 62
     5
370
    30
100
AcDbVertex
100
AcDb2dVertex
 10
1056.278134
 20
666.743034
 30
0.0
  0
VERTEX
  5
35F
330
32D
100
AcDbEntity
  8
001
 62
     5
370
    30
100
AcDbVertex
100
AcDb2dVertex
 10
1055.39612
 20
664.169937
 30
0.0
  0
VERTEX
  5
360
330
32D
100
AcDbEntity
  8
001
 62
     5
370
    30
100
AcDbVertex
100
AcDb2dVertex
 10
1054.695311
 20
661.596123
 30
0.0
  0
VERTEX
  5
361
330
32D
100
AcDbEntity
  8
001
 62
     5
370
    30
100
AcDbVertex
100
AcDb2dVertex
 10
1054.191533
 20
659.025142
 30
0.0
  0
VERTEX
  5
362
330
32D
100
AcDbEntity
  8
001
 62
     5
370
    30
100
AcDbVertex
100
AcDb2dVertex
 10
1053.900613
 20
656.460549
 30
0.0
  0
VERTEX
  5
363
330
32D
100
AcDbEntity
  8
001
 62
     5
370
    30
100
AcDbVertex
100
AcDb2dVertex
 10
1053.838377
 20
653.905897
 30
0.0
  0
VERTEX
  5
364
330
32D
100
AcDbEntity
  8
001
 62
     5
370
    30
100
AcDbVertex
100
AcDb2dVertex
 10
1054.020651
 20
651.364738
 30
0.0
  0
VERTEX
  5
365
330
32D
100
AcDbEntity
  8
001
 62
     5
370
    30
100
AcDbVertex
100
AcDb2dVertex
 10
1054.463261
 20
648.840624
 30
0.0
  0
VERTEX
  5
366
330
32D
100
AcDbEntity
  8
001
 62
     5
370
    30
100
AcDbVertex
100
AcDb2dVertex
 10
1055.182034
 20
646.33711
 30
0.0
  0
VERTEX
  5
367
330
32D
100
AcDbEntity
  8
001
 62
     5
370
    30
100
AcDbVertex
100
AcDb2dVertex
 10
1056.909289
 20
642.418916
 30
0.0
  0
VERTEX
  5
368
330
32D
100
AcDbEntity
  8
001
 62
     5
370
    30
100
AcDbVertex
100
AcDb2dVertex
 10
1059.273385
 20
638.697308
 30
0.0
  0
VERTEX
  5
369
330
32D
100
AcDbEntity
  8
001
 62
     5
370
    30
100
AcDbVertex
100
AcDb2dVertex
 10
1062.169603
 20
635.307534
 30
0.0
  0
VERTEX
  5
36A
330
32D
100
AcDbEntity
  8
001
 62
     5
370
    30
100
AcDbVertex
100
AcDb2dVertex
 10
1065.493222
 20
632.384842
 30
0.0
  0
VERTEX
  5
36B
330
32D
100
AcDbEntity
  8
001
 62
     5
370
    30
100
AcDbVertex
100
AcDb2dVertex
 10
1069.13952
 20
630.06448
 30
0.0
  0
VERTEX
  5
36C
330
32D
100
AcDbEntity
  8
001
 62
     5
370
    30
100
AcDbVertex
100
AcDb2dVertex
 10
1074.605662
 20
627.979109
 30
0.0
  0
VERTEX
  5
36D
330
32D
100
AcDbEntity
  8
001
 62
     5
370
    30
100
AcDbVertex
100
AcDb2dVertex
 10
1080.411755
 20
627.044143
 30
0.0
  0
VERTEX
  5
36E
330
32D
100
AcDbEntity
  8
001
 62
     5
370
    30
100
AcDbVertex
100
AcDb2dVertex
 10
1086.472812
 20
626.971981
 30
0.0
  0
VERTEX
  5
36F
330
32D
100
AcDbEntity
  8
001
 62
     5
370
    30
100
AcDbVertex
100
AcDb2dVertex
 10
1092.703845
 20
627.475022
 30
0.0
  0
VERTEX
  5
370
330
32D
100
AcDbEntity
  8
001
 62
     5
370
    30
100
AcDbVertex
100
AcDb2dVertex
 10
1099.019865
 20
628.265664
 30
0.0
  0
SEQEND
  5
32E
330
32D
100
AcDbEntity
  8
001
370
    30
  0
LINE
  5
371
330
1F
100
AcDbEntity
  8
001
 62
     5
370
    30
100
AcDbLine
 10
1139.128993
 20
655.282979
 30
0.0
 11
1059.582743
 21
672.476158
 31
0.0
  0
LINE
  5
372
330
1F
100
AcDbEntity
  8
001
 62
     5
370
    30
100
AcDbLine
 10
1055.654963
 20
664.117285
 30
0.0
 11
1135.998761
 21
646.751723
 31
0.0
  0
LINE
  5
373
330
1F
100
AcDbEntity
  8
001
  6
HIDDEN
 62
     5
370
     9
100
AcDbLine
 10
1055.654963
 20
664.117285
 30
0.0
 11
981.068965
 21
680.238353
 31
0.0
  0
LINE
  5
374
330
1F
100
AcDbEntity
  8
001
  6
HIDDEN
 62
     5
370
     9
100
AcDbLine
 10
1139.128993
 20
655.282979
 30
0.0
 11
1154.27725
 21
652.008824
 31
0.0
  0
LINE
  5
375
330
1F
100
AcDbEntity
  8
001
  6
HIDDEN
 62
     5
370
     9
100
AcDbLine
 10
1059.582743
 20
672.476158
 30
0.0
 11
943.520422
 21
697.561946
 31
0.0
  0
LINE
  5
376
330
1F
100
AcDbEntity
  8
001
  6
HIDDEN
 62
     5
370
     9
100
AcDbLine
 10
1153.050537
 20
551.768886
 30
0.0
 11
941.242057
 21
511.387018
 31
0.0
  0
LINE
  5
377
330
1F
100
AcDbEntity
  8
001
  6
HIDDEN
 62
     5
370
     9
100
AcDbLine
 10
979.203296
 20
527.78654
 30
0.0
 11
1142.75387
 21
558.967906
 31
0.0
  0
LINE
  5
378
330
1F
100
AcDbEntity
  8
001
  6
CENTER
 62
     5
370
     9
100
AcDbLine
 10
1171.927195
 20
1337.490685
 30
0.0
 11
1222.450508
 21
1337.490685
 31
0.0
  0
LINE
  5
379
330
1F
100
AcDbEntity
  8
001
  6
CENTER
 62
     5
370
     9
100
AcDbLine
 10
1203.450508
 20
1353.490685
 30
0.0
 11
1203.450508
 21
1317.490685
 31
0.0
  0
LINE
  5
37A
330
1F
100
AcDbEntity
  8
001
 62
     5
370
    30
100
AcDbLine
 10
391.771347
 20
759.506152
 30
0.0
 11
429.771347
 21
759.506152
 31
0.0
  0
LINE
  5
37B
330
1F
100
AcDbEntity
  8
001
 62
     5
370
    30
100
AcDbLine
 10
429.771347
 20
759.506152
 30
0.0
 11
429.771347
 21
749.506152
 31
0.0
  0
LINE
  5
37C
330
1F
100
AcDbEntity
  8
001
 62
     5
370
    30
100
AcDbLine
 10
391.771347
 20
749.506152
 30
0.0
 11
391.771347
 21
759.506152
 31
0.0
  0
ARC
  5
37D
330
1F
100
AcDbEntity
  8
001
 62
     5
370
    30
100
AcDbCircle
 10
395.326903
 20
784.506152
 30
0.0
 40
1.000246883104614
100
AcDbArc
 50
268.72697
 51
91.27303
  0
LINE
  5
37E
330
1F
100
AcDbEntity
  8
001
 62
     5
370
    30
100
AcDbLine
 10
395.749131
 20
803.506399
 30
0.0
 11
395.349125
 21
785.506152
 31
0.0
  0
LINE
  5
37F
330
1F
100
AcDbEntity
  8
001
 62
     5
370
    30
100
AcDbLine
 10
395.749131
 20
803.506399
 30
0.0
 11
396.794327
 21
804.506152
 31
0.0
  0
ARC
  5
380
330
1F
100
AcDbEntity
  8
001
 62
     5
370
    30
100
AcDbCircle
 10
395.104681
 20
774.506152
 30
0.0
 40
1.000246883104614
100
AcDbArc
 50
268.72697
 51
91.27303
  0
LINE
  5
381
330
1F
100
AcDbEntity
  8
001
 62
     5
370
    30
100
AcDbLine
 10
394.771347
 20
759.506152
 30
0.0
 11
395.082458
 21
773.506152
 31
0.0
  0
LINE
  5
382
330
1F
100
AcDbEntity
  8
001
 62
     5
370
    30
100
AcDbLine
 10
395.126903
 20
775.506152
 30
0.0
 11
395.304681
 21
783.506152
 31
0.0
  0
ARC
  5
383
330
1F
100
AcDbEntity
  8
001
 62
     5
370
    30
100
AcDbCircle
 10
426.215792
 20
784.506152
 30
0.0
 40
1.000246883104614
100
AcDbArc
 50
88.72697
 51
271.27303
  0
LINE
  5
384
330
1F
100
AcDbEntity
  8
001
 62
     5
370
    30
100
AcDbLine
 10
425.793564
 20
803.506399
 30
0.0
 11
426.19357
 21
785.506152
 31
0.0
  0
LINE
  5
385
330
1F
100
AcDbEntity
  8
001
 62
     5
370
    30
100
AcDbLine
 10
425.793564
 20
803.506399
 30
0.0
 11
424.748368
 21
804.506152
 31
0.0
  0
ARC
  5
386
330
1F
100
AcDbEntity
  8
001
 62
     5
370
    30
100
AcDbCircle
 10
426.438014
 20
774.506152
 30
0.0
 40
1.000246883104614
100
AcDbArc
 50
88.72697
 51
271.27303
  0
LINE
  5
387
330
1F
100
AcDbEntity
  8
001
 62
     5
370
    30
100
AcDbLine
 10
426.771347
 20
759.506152
 30
0.0
 11
426.460236
 21
773.506152
 31
0.0
  0
LINE
  5
388
330
1F
100
AcDbEntity
  8
001
 62
     5
370
    30
100
AcDbLine
 10
426.415792
 20
775.506152
 30
0.0
 11
426.238014
 21
783.506152
 31
0.0
  0
LINE
  5
389
330
1F
100
AcDbEntity
  8
001
 62
     5
370
    30
100
AcDbLine
 10
395.349125
 20
785.506152
 30
0.0
 11
426.19357
 21
785.506152
 31
0.0
  0
LINE
  5
38A
330
1F
100
AcDbEntity
  8
001
 62
     5
370
    30
100
AcDbLine
 10
395.304681
 20
783.506152
 30
0.0
 11
426.238014
 21
783.506152
 31
0.0
  0
LINE
  5
38B
330
1F
100
AcDbEntity
  8
001
 62
     5
370
    30
100
AcDbLine
 10
395.082458
 20
775.506152
 30
0.0
 11
426.415792
 21
775.506152
 31
0.0
  0
LINE
  5
38C
330
1F
100
AcDbEntity
  8
001
 62
     5
370
    30
100
AcDbLine
 10
395.082458
 20
773.506152
 30
0.0
 11
426.460236
 21
773.506152
 31
0.0
  0
LINE
  5
38D
330
1F
100
AcDbEntity
  8
001
 62
     5
370
    30
100
AcDbLine
 10
436.771347
 20
811.506152
 30
0.0
 11
384.771347
 21
811.506152
 31
0.0
  0
LINE
  5
38E
330
1F
100
AcDbEntity
  8
001
 62
     5
370
    30
100
AcDbLine
 10
437.771347
 20
822.681716
 30
0.0
 11
383.771347
 21
822.681716
 31
0.0
  0
LINE
  5
38F
330
1F
100
AcDbEntity
  8
001
 62
     5
370
    30
100
AcDbLine
 10
383.771347
 20
812.506152
 30
0.0
 11
383.771347
 21
822.681716
 31
0.0
  0
LINE
  5
390
330
1F
100
AcDbEntity
  8
001
 62
     5
370
    30
100
AcDbLine
 10
437.771347
 20
822.681716
 30
0.0
 11
437.771347
 21
812.506152
 31
0.0
  0
LINE
  5
391
330
1F
100
AcDbEntity
  8
001
 62
     5
370
    30
100
AcDbLine
 10
383.771347
 20
812.506152
 30
0.0
 11
384.771347
 21
811.506152
 31
0.0
  0
LINE
  5
392
330
1F
100
AcDbEntity
  8
001
 62
     5
370
    30
100
AcDbLine
 10
436.771347
 20
811.506152
 30
0.0
 11
437.771347
 21
812.506152
 31
0.0
  0
LINE
  5
393
330
1F
100
AcDbEntity
  8
001
 62
     5
370
    30
100
AcDbLine
 10
395.771347
 20
811.506152
 30
0.0
 11
395.771347
 21
804.506152
 31
0.0
  0
LINE
  5
394
330
1F
100
AcDbEntity
  8
001
 62
     5
370
    30
100
AcDbLine
 10
425.771347
 20
811.506152
 30
0.0
 11
425.771347
 21
804.506152
 31
0.0
  0
LINE
  5
395
330
1F
100
AcDbEntity
  8
001
 62
     5
370
    30
100
AcDbLine
 10
395.771347
 20
804.506152
 30
0.0
 11
425.771347
 21
804.506152
 31
0.0
  0
ARC
  5
396
330
1F
100
AcDbEntity
  8
001
 62
     5
370
    30
100
AcDbCircle
 10
410.771347
 20
805.506152
 30
0.0
 40
32.0
100
AcDbArc
 50
32.461745
 51
147.538255
  0
LINE
  5
397
330
1F
100
AcDbEntity
  8
001
  6
CENTER
 62
     5
370
     9
100
AcDbLine
 10
410.771347
 20
837.506152
 30
0.0
 11
410.771347
 21
741.849157
 31
0.0
  0
LINE
  5
398
330
1F
100
AcDbEntity
  8
001
 62
     5
370
    30
100
AcDbLine
 10
982.450508
 20
749.506152
 30
0.0
 11
944.450508
 21
749.506152
 31
0.0
  0
LINE
  5
399
330
1F
100
AcDbEntity
  8
001
 62
     5
370
    30
100
AcDbLine
 10
982.450508
 20
759.506152
 30
0.0
 11
944.450508
 21
759.506152
 31
0.0
  0
LINE
  5
39A
330
1F
100
AcDbEntity
  8
001
 62
     5
370
    30
100
AcDbLine
 10
944.450508
 20
759.506152
 30
0.0
 11
944.450508
 21
749.506152
 31
0.0
  0
LINE
  5
39B
330
1F
100
AcDbEntity
  8
001
 62
     5
370
    30
100
AcDbLine
 10
982.450508
 20
749.506152
 30
0.0
 11
982.450508
 21
759.506152
 31
0.0
  0
ARC
  5
39C
330
1F
100
AcDbEntity
  8
001
 62
     5
370
    30
100
AcDbCircle
 10
978.894953
 20
784.506152
 30
0.0
 40
1.000246883104614
100
AcDbArc
 50
88.72697
 51
271.27303
  0
LINE
  5
39D
330
1F
100
AcDbEntity
  8
001
 62
     5
370
    30
100
AcDbLine
 10
978.472725
 20
803.506399
 30
0.0
 11
978.87273
 21
785.506152
 31
0.0
  0
LINE
  5
39E
330
1F
100
AcDbEntity
  8
001
 62
     5
370
    30
100
AcDbLine
 10
978.472725
 20
803.506399
 30
0.0
 11
977.427528
 21
804.506152
 31
0.0
  0
ARC
  5
39F
330
1F
100
AcDbEntity
  8
001
 62
     5
370
    30
100
AcDbCircle
 10
979.117175
 20
774.506152
 30
0.0
 40
1.000246883104614
100
AcDbArc
 50
88.72697
 51
271.27303
  0
LINE
  5
3A0
330
1F
100
AcDbEntity
  8
001
 62
     5
370
    30
100
AcDbLine
 10
979.450508
 20
759.506152
 30
0.0
 11
979.139397
 21
773.506152
 31
0.0
  0
LINE
  5
3A1
330
1F
100
AcDbEntity
  8
001
 62
     5
370
    30
100
AcDbLine
 10
979.094953
 20
775.506152
 30
0.0
 11
978.917175
 21
783.506152
 31
0.0
  0
ARC
  5
3A2
330
1F
100
AcDbEntity
  8
001
 62
     5
370
    30
100
AcDbCircle
 10
948.006064
 20
784.506152
 30
0.0
 40
1.000246883104614
100
AcDbArc
 50
268.72697
 51
91.27303
  0
LINE
  5
3A3
330
1F
100
AcDbEntity
  8
001
 62
     5
370
    30
100
AcDbLine
 10
948.428291
 20
803.506399
 30
0.0
 11
948.028286
 21
785.506152
 31
0.0
  0
LINE
  5
3A4
330
1F
100
AcDbEntity
  8
001
 62
     5
370
    30
100
AcDbLine
 10
948.428291
 20
803.506399
 30
0.0
 11
949.473488
 21
804.506152
 31
0.0
  0
ARC
  5
3A5
330
1F
100
AcDbEntity
  8
001
 62
     5
370
    30
100
AcDbCircle
 10
947.783842
 20
774.506152
 30
0.0
 40
1.000246883104614
100
AcDbArc
 50
268.72697
 51
91.27303
  0
LINE
  5
3A6
330
1F
100
AcDbEntity
  8
001
 62
     5
370
    30
100
AcDbLine
 10
947.450508
 20
759.506152
 30
0.0
 11
947.761619
 21
773.506152
 31
0.0
  0
LINE
  5
3A7
330
1F
100
AcDbEntity
  8
001
 62
     5
370
    30
100
AcDbLine
 10
947.806064
 20
775.506152
 30
0.0
 11
947.983842
 21
783.506152
 31
0.0
  0
LINE
  5
3A8
330
1F
100
AcDbEntity
  8
001
 62
     5
370
    30
100
AcDbLine
 10
978.87273
 20
785.506152
 30
0.0
 11
948.028286
 21
785.506152
 31
0.0
  0
LINE
  5
3A9
330
1F
100
AcDbEntity
  8
001
 62
     5
370
    30
100
AcDbLine
 10
978.917175
 20
783.506152
 30
0.0
 11
947.983842
 21
783.506152
 31
0.0
  0
LINE
  5
3AA
330
1F
100
AcDbEntity
  8
001
 62
     5
370
    30
100
AcDbLine
 10
979.139397
 20
775.506152
 30
0.0
 11
947.806064
 21
775.506152
 31
0.0
  0
LINE
  5
3AB
330
1F
100
AcDbEntity
  8
001
 62
     5
370
    30
100
AcDbLine
 10
979.139397
 20
773.506152
 30
0.0
 11
947.761619
 21
773.506152
 31
0.0
  0
LINE
  5
3AC
330
1F
100
AcDbEntity
  8
001
 62
     5
370
    30
100
AcDbLine
 10
937.450508
 20
811.506152
 30
0.0
 11
989.450508
 21
811.506152
 31
0.0
  0
LINE
  5
3AD
330
1F
100
AcDbEntity
  8
001
 62
     5
370
    30
100
AcDbLine
 10
936.450508
 20
822.681716
 30
0.0
 11
990.450508
 21
822.681716
 31
0.0
  0
LINE
  5
3AE
330
1F
100
AcDbEntity
  8
001
 62
     5
370
    30
100
AcDbLine
 10
990.450508
 20
812.506152
 30
0.0
 11
990.450508
 21
822.681716
 31
0.0
  0
LINE
  5
3AF
330
1F
100
AcDbEntity
  8
001
 62
     5
370
    30
100
AcDbLine
 10
936.450508
 20
822.681716
 30
0.0
 11
936.450508
 21
812.506152
 31
0.0
  0
LINE
  5
3B0
330
1F
100
AcDbEntity
  8
001
 62
     5
370
    30
100
AcDbLine
 10
990.450508
 20
812.506152
 30
0.0
 11
989.450508
 21
811.506152
 31
0.0
  0
LINE
  5
3B1
330
1F
100
AcDbEntity
  8
001
 62
     5
370
    30
100
AcDbLine
 10
937.450508
 20
811.506152
 30
0.0
 11
936.450508
 21
812.506152
 31
0.0
  0
LINE
  5
3B2
330
1F
100
AcDbEntity
  8
001
 62
     5
370
    30
100
AcDbLine
 10
978.450508
 20
811.506152
 30
0.0
 11
978.450508
 21
804.506152
 31
0.0
  0
LINE
  5
3B3
330
1F
100
AcDbEntity
  8
001
 62
     5
370
    30
100
AcDbLine
 10
948.450508
 20
811.506152
 30
0.0
 11
948.450508
 21
804.506152
 31
0.0
  0
LINE
  5
3B4
330
1F
100
AcDbEntity
  8
001
 62
     5
370
    30
100
AcDbLine
 10
978.450508
 20
804.506152
 30
0.0
 11
948.450508
 21
804.506152
 31
0.0
  0
ARC
  5
3B5
330
1F
100
AcDbEntity
  8
001
 62
     5
370
    30
100
AcDbCircle
 10
963.450508
 20
805.506152
 30
0.0
 40
32.0
100
AcDbArc
 50
32.461745
 51
147.538255
  0
LINE
  5
3B6
330
1F
100
AcDbEntity
  8
001
  6
CENTER
 62
     5
370
     9
100
AcDbLine
 10
963.450508
 20
837.506152
 30
0.0
 11
963.450508
 21
741.849157
 31
0.0
  0
CIRCLE
  5
3B7
330
1F
100
AcDbEntity
  8
001
 62
     5
370
    30
100
AcDbCircle
 10
963.450508
 20
1250.490685
 30
0.0
 40
27.0
  0
LINE
  5
3B8
330
1F
100
AcDbEntity
  8
001
 62
     5
370
    30
100
AcDbLine
 10
988.450508
 20
1327.490685
 30
0.0
 11
858.450508
 21
1327.490685
 31
0.0
  0
LINE
  5
3B9
330
1F
100
AcDbEntity
  8
001
 62
     5
370
    30
100
AcDbLine
 10
998.450508
 20
1317.490685
 30
0.0
 11
988.450508
 21
1327.490685
 31
0.0
  0
LINE
  5
3BA
330
1F
100
AcDbEntity
  8
001
 62
     5
370
    30
100
AcDbLine
 10
1011.450508
 20
1125.490685
 30
0.0
 11
1011.450508
 21
1295.490685
 31
0.0
  0
LINE
  5
3BB
330
1F
100
AcDbEntity
  8
001
 62
     5
370
    30
100
AcDbLine
 10
1011.450508
 20
1247.490685
 30
0.0
 11
1038.450508
 21
1247.490685
 31
0.0
  0
LINE
  5
3BC
330
1F
100
AcDbEntity
  8
001
  6
CENTER
 62
     5
370
     9
100
AcDbLine
 10
851.950508
 20
1311.990685
 30
0.0
 11
994.950508
 21
1311.990685
 31
0.0
  0
CIRCLE
  5
3BD
330
1F
100
AcDbEntity
  8
001
 62
     5
370
    30
100
AcDbCircle
 10
1004.450508
 20
1250.490685
 30
0.0
 40
4.75
  0
LINE
  5
3BE
330
1F
100
AcDbEntity
  8
001
  6
CENTER
 62
     5
370
     9
100
AcDbLine
 10
1004.450508
 20
1125.490685
 30
0.0
 11
1004.450508
 21
1295.490685
 31
0.0
  0
LINE
  5
3BF
330
1F
100
AcDbEntity
  8
001
  6
HIDDEN
 62
     5
370
     9
100
AcDbLine
 10
1135.998761
 20
646.751723
 30
0.0
 11
1147.971775
 21
644.163868
 31
0.0
  0
LINE
  5
3C0
330
1F
100
AcDbEntity
  8
001
 62
     5
370
    30
100
AcDbLine
 10
1303.450508
 20
466.906152
 30
0.0
 11
803.450508
 21
466.906152
 31
0.0
  0
LINE
  5
3C1
330
1F
100
AcDbEntity
  8
001
 62
     5
370
    30
100
AcDbLine
 10
603.771347
 20
463.706152
 30
0.0
 11
603.771347
 21
466.906152
 31
0.0
  0
LINE
  5
3C2
330
1F
100
AcDbEntity
  8
001
 62
     5
370
    30
100
AcDbLine
 10
603.771347
 20
466.906152
 30
0.0
 11
570.771347
 21
466.906152
 31
0.0
  0
ARC
  5
3C3
330
1F
100
AcDbEntity
  8
001
 62
     5
370
    30
100
AcDbCircle
 10
570.771347
 20
468.906152
 30
0.0
 40
2.0
100
AcDbArc
 50
180.0
 51
270.0
  0
ARC
  5
3C4
330
1F
100
AcDbEntity
  8
001
 62
     5
370
    30
100
AcDbCircle
 10
563.571347
 20
493.506152
 30
0.0
 40
5.2
100
AcDbArc
 50
0.0
 51
90.0
  0
LINE
  5
3C5
330
1F
100
AcDbEntity
  8
001
 62
     5
370
    30
100
AcDbLine
 10
568.771347
 20
493.506152
 30
0.0
 11
568.771347
 21
468.906152
 31
0.0
  0
LINE
  5
3C6
330
1F
100
AcDbEntity
  8
001
 62
     5
370
    30
100
AcDbLine
 10
303.771347
 20
463.706152
 30
0.0
 11
303.771347
 21
466.906152
 31
0.0
  0
LINE
  5
3C7
330
1F
100
AcDbEntity
  8
001
 62
     5
370
    30
100
AcDbLine
 10
298.771347
 20
466.906152
 30
0.0
 11
336.771347
 21
466.906152
 31
0.0
  0
LINE
  5
3C8
330
1F
100
AcDbEntity
  8
001
 62
     5
370
    30
100
AcDbLine
 10
298.771347
 20
466.906152
 30
0.0
 11
298.771347
 21
498.706152
 31
0.0
  0
ARC
  5
3C9
330
1F
100
AcDbEntity
  8
001
 62
     5
370
    30
100
AcDbCircle
 10
336.771347
 20
468.906152
 30
0.0
 40
2.0
100
AcDbArc
 50
270.0
 51
0.0
  0
ARC
  5
3CA
330
1F
100
AcDbEntity
  8
001
 62
     5
370
    30
100
AcDbCircle
 10
343.971347
 20
493.506152
 30
0.0
 40
5.2
100
AcDbArc
 50
90.0
 51
180.0
  0
LINE
  5
3CB
330
1F
100
AcDbEntity
  8
001
 62
     5
370
    30
100
AcDbLine
 10
338.771347
 20
493.506152
 30
0.0
 11
338.771347
 21
468.906152
 31
0.0
  0
LINE
  5
3CC
330
1F
100
AcDbEntity
  8
001
 62
     5
370
    30
100
AcDbLine
 10
338.771347
 20
538.706152
 30
0.0
 11
338.771347
 21
493.506152
 31
0.0
  0
ENDSEC
  0
SECTION
  2
OBJECTS
  0
DICTIONARY
  5
C
330
0
100
AcDbDictionary
281
     1
  3
ACAD_GROUP
350
D
  3
ACAD_LAYOUT
350
1A
  3
ACAD_MLEADERSTYLE
350
3CF
  3
ACAD_MLINESTYLE
350
17
  3
ACAD_PLOTSETTINGS
350
19
  3
ACAD_PLOTSTYLENAME
350
E
  3
ACAD_VISUALSTYLE
350
2A
  3
AcDbVariableDictionary
350
3CD
  0
DICTIONARY
  5
D
102
{ACAD_REACTORS
330
C
102
}
330
C
100
AcDbDictionary
281
     1
  0
DICTIONARY
  5
1A
102
{ACAD_REACTORS
330
C
102
}
330
C
100
AcDbDictionary
281
     1
  3
Layout1
350
1E
  3
Layout2
350
26
  3
Model
350
22
  0
DICTIONARY
  5
3CF
102
{ACAD_REACTORS
330
C
102
}
330
C
100
AcDbDictionary
281
     1
  0
DICTIONARY
  5
17
102
{ACAD_REACTORS
330
C
102
}
330
C
100
AcDbDictionary
281
     1
  3
Standard
350
18
  0
DICTIONARY
  5
19
102
{ACAD_REACTORS
330
C
102
}
330
C
100
AcDbDictionary
281
     1
  0
ACDBDICTIONARYWDFLT
  5
E
102
{ACAD_REACTORS
330
C
102
}
330
C
100
AcDbDictionary
281
     1
  3
Normal
350
F
100
AcDbDictionaryWithDefault
340
F
  0
DICTIONARY
  5
2A
102
{ACAD_REACTORS
330
C
102
}
330
C
100
AcDbDictionary
281
     1
  3
2dWireframe
350
2F
  3
3D Hidden
350
31
  3
3dWireframe
350
30
  3
Basic
350
32
  3
Brighten
350
36
  3
ColorChange
350
3A
  3
Conceptual
350
34
  3
Dim
350
35
  3
Facepattern
350
39
  3
Flat
350
2B
  3
FlatWithEdges
350
2C
  3
Gouraud
350
2D
  3
GouraudWithEdges
350
2E
  3
Linepattern
350
38
  3
Realistic
350
33
  3
Thicken
350
37
  0
DICTIONARY
  5
3CD
102
{ACAD_REACTORS
330
C
102
}
330
C
100
AcDbDictionary
281
     1
  3
PSOLHEIGHT
350
3D1
  3
PSOLWIDTH
350
3D0
  0
LAYOUT
  5
1E
102
{ACAD_REACTORS
330
1A
102
}
330
1A
100
AcDbPlotSettings
  1

  2
none_device
  4

  6

 40
0.0
 41
0.0
 42
0.0
 43
0.0
 44
0.0
 45
0.0
 46
0.0
 47
0.0
 48
0.0
 49
0.0
140
0.0
141
0.0
142
1.0
143
1.0
 70
   688
 72
     0
 73
     0
 74
     5
  7

 75
    16
147
1.0
148
0.0
149
0.0
100
AcDbLayout
  1
Layout1
 70
     1
 71
     1
 10
0.0
 20
0.0
 11
12.0
 21
9.0
 12
0.0
 22
0.0
 32
0.0
 14
1.000000E+20
 24
1.000000E+20
 34
0.0
 15
-1.000000E+20
 25
-1.000000E+20
 35
0.0
146
0.0
 13
0.0
 23
0.0
 33
0.0
 16
1.0
 26
0.0
 36
0.0
 17
0.0
 27
1.0
 37
0.0
 76
     0
330
1B
  0
LAYOUT
  5
26
102
{ACAD_REACTORS
330
1A
102
}
330
1A
100
AcDbPlotSettings
  1

  2
none_device
  4

  6

 40
0.0
 41
0.0
 42
0.0
 43
0.0
 44
0.0
 45
0.0
 46
0.0
 47
0.0
 48
0.0
 49
0.0
140
0.0
141
0.0
142
1.0
143
1.0
 70
   688
 72
     0
 73
     0
 74
     5
  7

 75
    16
147
1.0
148
0.0
149
0.0
100
AcDbLayout
  1
Layout2
 70
     1
 71
     2
 10
0.0
 20
0.0
 11
0.0
 21
0.0
 12
0.0
 22
0.0
 32
0.0
 14
0.0
 24
0.0
 34
0.0
 15
0.0
 25
0.0
 35
0.0
146
0.0
 13
0.0
 23
0.0
 33
0.0
 16
1.0
 26
0.0
 36
0.0
 17
0.0
 27
1.0
 37
0.0
 76
     0
330
23
  0
LAYOUT
  5
22
102
{ACAD_REACTORS
330
1A
102
}
330
1A
100
AcDbPlotSettings
  1

  2
none_device
  4

  6

 40
0.0
 41
0.0
 42
0.0
 43
0.0
 44
0.0
 45
0.0
 46
0.0
 47
0.0
 48
0.0
 49
0.0
140
0.0
141
0.0
142
1.0
143
1.0
 70
  1712
 72
     0
 73
     0
 74
     0
  7

 75
     0
147
1.0
148
0.0
149
0.0
100
AcDbLayout
  1
Model
 70
     1
 71
     0
 10
0.0
 20
0.0
 11
12.0
 21
9.0
 12
0.0
 22
0.0
 32
0.0
 14
283.771362
 24
439.232178
 34
0.0
 15
1303.450562
 25
1372.490723
 35
0.0
146
0.0
 13
0.0
 23
0.0
 33
0.0
 16
1.0
 26
0.0
 36
0.0
 17
0.0
 27
1.0
 37
0.0
 76
     0
330
1F
331
29
  0
MLINESTYLE
  5
18
102
{ACAD_REACTORS
330
17
102
}
330
17
100
AcDbMlineStyle
  2
Standard
 70
     0
  3

 62
   256
 51
90.0
 52
90.0
 71
     2
 49
0.5
 62
   256
  6
BYLAYER
 49
-0.5
 62
   256
  6
BYLAYER
  0
ACDBPLACEHOLDER
  5
F
102
{ACAD_REACTORS
330
E
102
}
330
E
  0
VISUALSTYLE
  5
2F
102
{ACAD_REACTORS
330
2A
102
}
330
2A
100
AcDbVisualStyle
  2
2dWireframe
 70
     4
 71
     0
 72
     2
 73
     0
 90
        0
 40
-0.6
 41
-30.0
 62
     5
 63
     7
 74
     1
 91
        4
 64
     7
 65
   257
 75
     1
175
     1
 42
1.0
 92
        0
 66
   257
 43
1.0
 76
     1
 77
     6
 78
     2
 67
     7
 79
     5
170
     0
171
     0
290
     0
174
     0
 93
        1
 44
0.0
173
     0
291
     0
 45
0.0
1001
ACAD
1000
AcDbSavedByObjectVersion
1070
     0
  0
VISUALSTYLE
  5
31
102
{ACAD_REACTORS
330
2A
102
}
330
2A
100
AcDbVisualStyle
  2
3D Hidden
 70
     6
 71
     1
 72
     2
 73
     2
 90
        0
 40
-0.6
 41
-30.0
 62
     5
 63
     7
 74
     2
 91
        2
 64
     7
 65
   257
 75
     2
175
     1
 42
40.0
 92
        0
 66
   257
 43
1.0
 76
     1
 77
     6
 78
     2
 67
     7
 79
     3
170
     0
171
     0
290
     0
174
     0
 93
        1
 44
0.0
173
     0
291
     0
 45
0.0
1001
ACAD
1000
AcDbSavedByObjectVersion
1070
     0
  0
VISUALSTYLE
  5
30
102
{ACAD_REACTORS
330
2A
102
}
330
2A
100
AcDbVisualStyle
  2
3dWireframe
 70
     5
 71
     0
 72
     2
 73
     0
 90
        0
 40
-0.6
 41
-30.0
 62
     5
 63
     7
 74
     1
 91
        4
 64
     7
 65
   257
 75
     1
175
     1
 42
1.0
 92
        0
 66
   257
 43
1.0
 76
     1
 77
     6
 78
     2
 67
     7
 79
     5
170
     0
171
     0
290
     0
174
     0
 93
        1
 44
0.0
173
     0
291
     0
 45
0.0
1001
ACAD
1000
AcDbSavedByObjectVersion
1070
     0
  0
VISUALSTYLE
  5
32
102
{ACAD_REACTORS
330
2A
102
}
330
2A
100
AcDbVisualStyle
  2
Basic
 70
     7
 71
     1
 72
     0
 73
     1
 90
        0
 40
-0.6
 41
-30.0
 62
     5
 63
     7
 74
     0
 91
        4
 64
     7
 65
   257
 75
     1
175
     1
 42
1.0
 92
        8
 66
     7
 43
1.0
 76
     1
 77
     6
 78
     2
 67
     7
 79
     5
170
     0
171
     0
290
     0
174
     0
 93
        1
 44
0.0
173
     0
291
     1
 45
0.0
1001
ACAD
1000
AcDbSavedByObjectVersion
1070
     0
  0
VISUALSTYLE
  5
36
102
{ACAD_REACTORS
330
2A
102
}
330
2A
100
AcDbVisualStyle
  2
Brighten
 70
    12
 71
     2
 72
     2
 73
     0
 90
        0
 40
-0.6
 41
-30.0
 62
     5
 63
     7
 74
     1
 91
        4
 64
     7
 65
   257
 75
     1
175
     1
 42
1.0
 92
        8
 66
     7
 43
1.0
 76
     1
 77
     6
 78
     2
 67
     7
 79
     5
170
     0
171
     0
290
     0
174
     0
 93
        1
 44
50.0
173
     0
291
     1
 45
0.0
1001
ACAD
1000
AcDbSavedByObjectVersion
1070
     0
  0
VISUALSTYLE
  5
3A
102
{ACAD_REACTORS
330
2A
102
}
330
2A
100
AcDbVisualStyle
  2
ColorChange
 70
    16
 71
     2
 72
     2
 73
     3
 90
        0
 40
-0.6
 41
-30.0
 62
     5
 63
     8
 74
     1
 91
        4
 64
     7
 65
   257
 75
     1
175
     1
 42
1.0
 92
        8
 66
     8
 43
1.0
 76
     1
 77
     6
 78
     2
 67
     7
 79
     5
170
     0
171
     0
290
     0
174
     0
 93
        1
 44
0.0
173
     0
291
     1
 45
0.0
1001
ACAD
1000
AcDbSavedByObjectVersion
1070
     0
  0
VISUALSTYLE
  5
34
102
{ACAD_REACTORS
330
2A
102
}
330
2A
100
AcDbVisualStyle
  2
Conceptual
 70
     9
 71
     3
 72
     2
 73
     0
 90
        0
 40
-0.6
 41
-30.0
 62
     5
 63
     7
 74
     2
 91
        2
 64
     7
 65
   257
 75
     1
175
     1
 42
40.0
 92
        8
 66
     7
 43
1.0
 76
     1
 77
     6
 78
     2
 67
     7
 79
     3
170
     0
171
     0
290
     0
174
     0
 93
        1
 44
0.0
173
     0
291
     0
 45
0.0
1001
ACAD
1000
AcDbSavedByObjectVersion
1070
     0
  0
VISUALSTYLE
  5
35
102
{ACAD_REACTORS
330
2A
102
}
330
2A
100
AcDbVisualStyle
  2
Dim
 70
    11
 71
     2
 72
     2
 73
     0
 90
        0
 40
-0.6
 41
-30.0
 62
     5
 63
     7
 74
     1
 91
        4
 64
     7
 65
   257
 75
     1
175
     1
 42
1.0
 92
        8
 66
     7
 43
1.0
 76
     1
 77
     6
 78
     2
 67
     7
 79
     5
170
     0
171
     0
290
     0
174
     0
 93
        1
 44
-50.0
173
     0
291
     1
 45
0.0
1001
ACAD
1000
AcDbSavedByObjectVersion
1070
     0
  0
VISUALSTYLE
  5
39
102
{ACAD_REACTORS
330
2A
102
}
330
2A
100
AcDbVisualStyle
  2
Facepattern
 70
    15
 71
     2
 72
     2
 73
     0
 90
        0
 40
-0.6
 41
-30.0
 62
     5
 63
     7
 74
     1
 91
        4
 64
     7
 65
   257
 75
     1
175
     1
 42
1.0
 92
        8
 66
     7
 43
1.0
 76
     1
 77
     6
 78
     2
 67
     7
 79
     5
170
     0
171
     0
290
     0
174
     0
 93
        1
 44
0.0
173
     0
291
     1
 45
0.0
1001
ACAD
1000
AcDbSavedByObjectVersion
1070
     0
  0
VISUALSTYLE
  5
2B
102
{ACAD_REACTORS
330
2A
102
}
330
2A
100
AcDbVisualStyle
  2
Flat
 70
     0
 71
     2
 72
     1
 73
     1
 90
        2
 40
-0.6
 41
30.0
 62
     5
 63
     7
 74
     0
 91
        4
 64
     7
 65
   257
 75
     1
175
     1
 42
1.0
 92
        8
 66
     7
 43
1.0
 76
     1
 77
     6
 78
     2
 67
     7
 79
     5
170
     0
171
     0
290
     0
174
     0
 93
       13
 44
0.0
173
     0
291
     1
 45
0.0
1001
ACAD
1000
AcDbSavedByObjectVersion
1070
     0
  0
VISUALSTYLE
  5
2C
102
{ACAD_REACTORS
330
2A
102
}
330
2A
100
AcDbVisualStyle
  2
FlatWithEdges
 70
     1
 71
     2
 72
     1
 73
     1
 90
        2
 40
-0.6
 41
30.0
 62
     5
 63
     7
 74
     1
 91
        4
 64
     7
 65
   257
 75
     1
175
     1
 42
1.0
 92
        0
 66
   257
 43
1.0
 76
     1
 77
     6
 78
     2
 67
     7
 79
     5
170
     0
171
     0
290
     0
174
     0
 93
       13
 44
0.0
173
     0
291
     1
 45
0.0
1001
ACAD
1000
AcDbSavedByObjectVersion
1070
     0
  0
VISUALSTYLE
  5
2D
102
{ACAD_REACTORS
330
2A
102
}
330
2A
100
AcDbVisualStyle
  2
Gouraud
 70
     2
 71
     2
 72
     2
 73
     1
 90
        2
 40
-0.6
 41
30.0
 62
     5
 63
     7
 74
     0
 91
        4
 64
     7
 65
   257
 75
     1
175
     1
 42
1.0
 92
        0
 66
     7
 43
1.0
 76
     1
 77
     6
 78
     2
 67
     7
 79
     5
170
     0
171
     0
290
     0
174
     0
 93
       13
 44
0.0
173
     0
291
     1
 45
0.0
1001
ACAD
1000
AcDbSavedByObjectVersion
1070
     0
  0
VISUALSTYLE
  5
2E
102
{ACAD_REACTORS
330
2A
102
}
330
2A
100
AcDbVisualStyle
  2
GouraudWithEdges
 70
     3
 71
     2
 72
     2
 73
     1
 90
        2
 40
-0.6
 41
30.0
 62
     5
 63
     7
 74
     1
 91
        4
 64
     7
 65
   257
 75
     1
175
     1
 42
1.0
 92
        0
 66
   257
 43
1.0
 76
     1
 77
     6
 78
     2
 67
     7
 79
     5
170
     0
171
     0
290
     0
174
     0
 93
       13
 44
0.0
173
     0
291
     1
 45
0.0
1001
ACAD
1000
AcDbSavedByObjectVersion
1070
     0
  0
VISUALSTYLE
  5
38
102
{ACAD_REACTORS
330
2A
102
}
330
2A
100
AcDbVisualStyle
  2
Linepattern
 70
    14
 71
     2
 72
     2
 73
     0
 90
        0
 40
-0.6
 41
-30.0
 62
     5
 63
     7
 74
     1
 91
        4
 64
     7
 65
   257
 75
     7
175
     7
 42
1.0
 92
        8
 66
     7
 43
1.0
 76
     1
 77
     6
 78
     2
 67
     7
 79
     5
170
     0
171
     0
290
     0
174
     0
 93
        1
 44
0.0
173
     0
291
     1
 45
0.0
1001
ACAD
1000
AcDbSavedByObjectVersion
1070
     0
  0
VISUALSTYLE
  5
33
102
{ACAD_REACTORS
330
2A
102
}
330
2A
100
AcDbVisualStyle
  2
Realistic
 70
     8
 71
     2
 72
     2
 73
     0
 90
        0
 40
-0.6
 41
-30.0
 62
     5
 63
     7
 74
     1
 91
        0
 64
     7
 65
   257
 75
     1
175
     1
 42
1.0
 92
        8
 66
     8
 43
1.0
 76
     1
 77
     6
 78
     2
 67
     7
 79
     5
170
     0
171
     0
290
     0
174
     0
 93
       13
 44
0.0
173
     0
291
     0
 45
0.0
1001
ACAD
1000
AcDbSavedByObjectVersion
1070
     0
  0
VISUALSTYLE
  5
37
102
{ACAD_REACTORS
330
2A
102
}
330
2A
100
AcDbVisualStyle
  2
Thicken
 70
    13
 71
     2
 72
     2
 73
     0
 90
        0
 40
-0.6
 41
-30.0
 62
     5
 63
     7
 74
     1
 91
        4
 64
     7
 65
   257
 75
     1
175
     1
 42
1.0
 92
       12
 66
     7
 43
1.0
 76
     1
 77
     6
 78
     2
 67
     7
 79
     5
170
     0
171
     0
290
     0
174
     0
 93
        1
 44
0.0
173
     0
291
     1
 45
0.0
1001
ACAD
1000
AcDbSavedByObjectVersion
1070
     0
  0
DICTIONARYVAR
  5
3D1
102
{ACAD_REACTORS
330
3CD
102
}
330
3CD
100
DictionaryVariables
280
     0
  1
80.000000
  0
DICTIONARYVAR
  5
3D0
102
{ACAD_REACTORS
330
3CD
102
}
330
3CD
100
DictionaryVariables
280
     0
  1
5.000000
  0
ENDSEC
  0
EOF
